Song name
# A B C D E F G H I J K L M N O P Q R S T U V W X Y Z

Jack Johnson - Banana Pancakes tab

Intro
e)5/7---7-5-3-0-3/5-x------5/7---7-5-3-0-3-x---|
a)----5-------------x----------5-----------x---|
d)------------------x-5--------------------x-0-|
g)------------------x-5--------------------x-0-|
b)------------------x-5--------------------x-0-|
e)------------------x-5--------------------x-0-|

e)5/7---------7-0-5-x------5/7---7-5-3-0-3-x---|
a)----5-5h7-5-------x----------5-----------x---|
d)------------------x-5----------------------0-|
g)------------------x-5----------------------0-|
b)------------------x-5----------------------0-|
e)------------------x-5----------------------0-|
(Cant you see that its just raining...)

e)0-x-0-----|
a)0-x-0-5-5-|
d)0-x-0-4-4-|
g)0-x-0-5-5-|
b)0-x-0-----|
e)0-x-0-----|
(But Baby...)

Verse
  (G)    (D7)    (Am)    (C-C7)
e)3---x-------x-------x-------|
a)----x-------x---0---x---3-3-|
d)----x---0---x-------x---2-2-|  (This repeats for all verses)
g)--0-x-0---2-x-0---2-x-0-0-3-|
b)--0-x-0---1-x-0---1-x-0-1-1-|
e)--3-x-0---2-x-0---0-x-0-0-0-|
(Ya hardly even notice...)

Chorus
e)5---x---5---x---5/7---7-5-3-0-3---x---3---x---5/7---7-5-3-0-3/5---x---5---x-|
a)----x-------x-------5-------------x-------x-------5---------------x-------x-|
d)----x-------x---------------------x-------x-----------------------x-------x-|
g)--7-x-7---7-x-7-----------------4-x-4---4-x-4-------------------7-x-7---7-x-|
b)--5-x-5---5-x-5-----------------0-x-0---0-x-0-------------------5-x-5---5-x-|
e)--5-x-5---5-x-5-----------------0-x-0---0-x-0-------------------5-x-5---5-x-|

e)---5/7---7-5-3-0-3---x---3---x---3---x---|
a)-------5-------------x-------x-------x---|
d)---------------------x-------x-------x---|
g)-7-----------------4-x-4---4-x-4---4-x-4-|
b)-5-----------------0-x-0---0-x-0---0-x-0-|
e)-5-----------------0-x-0---0-x-0---0-x-0-|

e)----|
a)5-5-|
d)4-4-|
g)5-5-|
b)----|
e)----|
(Just maybe...)

So,first things first,this song is played with your fingers.Each chord for the verse and
chorus begins with its bass note being plucked with the thumb.Than the top three
strings are picked "up" with your pointer finger. The "x" means that you slap all the 
strings on the guitar.

Key,
h (hammer on)
/ (slide up)
Tap to rate this tab
 
# A B C D E F G H I J K L M N O P Q R S T U V W X Y Z