Song name
# A B C D E F G H I J K L M N O P Q R S T U V W X Y Z

Jack Off Jill - Lovesong tab

tabber:juan martinez          ...:LoveSong:...
Tuning:Standard
Chords
A Gm Fm Em~Strum in this order
Chords
  A Gm Fm Em
e|-5--3--1--0-|
B|-5--3--1--0-|
G|-5--4--2--1-|
D|-7--5--3--2-|
A|-7--5--3--2-|
E|-5--3--1--0-|

Solo(played during verses and interlude)

e|-8-10-12-10-12-10-12-8-5---------------------------------------------------|
B|---------------------------------------------------------------------------|
G|---------------------------------------------------------------------------|
D|---------------------------------------------------------------------------|
A|---------------------------------------------------------------------------|
E|---------------------------------------------------------------------------|


This tab is correct i assure you.
have any questions just im me on AIM(my Screen Name Is xincogkneegrowx)
Tap to rate this tab
# A B C D E F G H I J K L M N O P Q R S T U V W X Y Z