Song name
# A B C D E F G H I J K L M N O P Q R S T U V W X Y Z

Jack Off Jill - Love Song tab

-----------------------------------------------------------------------------
			    Love Song - Jack Off Jill
-----------------------------------------------------------------------------

Tuning: Standard

Intro
e|----x---------x--------x-------x------------------------------------------|
B|----x---------x--------x-------x------------------------------------------|
G|----2---------x--------x-------x------------------------------------------|
D|----2---------5--------3-------2------------------------------------------|
A|----0---------5--------3-------2------------------------------------------|
E|----x---------3--------1-------0------------------------------------------|
      A        G        F       E

Verses (You play nothing at all, maybe just a stroke of Am)
e|-------------------------------------------------------------------------|
B|-------------------------------------------------------------------------|
G|-------------------------------------------------------------------------|
D|-------------------------------------------------------------------------|
A|-------------------------------------------------------------------------|
E|-------------------------------------------------------------------------|

Chorus (Finish with a single stroke on A5)
e|----x------x-----x-----x-------------------------------------------------|
B|----10-----8-----6-----5-------------------------------------------------|
G|----9------7-----5-----4-------------------------------------------------|
D|----7------5-----3-----2-------------------------------------------------|
A|----x------x-----x-----x-------------------------------------------------|
E|----x------x-----x-----x-------------------------------------------------|
     A5     G5    F5    E5


e|-8-10-12-10--12--10-8-5---8-10-12-10--12--10-8-5---8-10-12-10--12--10-8-5|
B|-------------------------------------------------------------------------|
G|-------------------------------------------------------------------------|
D|-------------------------------------------------------------------------|
A|-------------------------------------------------------------------------|
E|-------------------------------------------------------------------------|

e|-8-10-12-10--12--12-10-8-12-10-8-5---------------------------------------|
B|-------------------------------------------------------------------------|
G|-------------------------------------------------------------------------|
D|-------------------------------------------------------------------------|
A|-------------------------------------------------------------------------|
E|-------------------------------------------------------------------------|

Tap to rate this tab
# A B C D E F G H I J K L M N O P Q R S T U V W X Y Z