Song name
# A B C D E F G H I J K L M N O P Q R S T U V W X Y Z

Jade - Goodbye tab

Song: Goodbye
Artist: Jade
Jade is one of the coolest upcoming groups around and if you want to hear more 
them write to Cain on   r.c.fleming@xtra.co.nz  . "Goodbye" is one of their first songs. 
Intro: ( play 
) 
									
E |-----------------------------------------------------------------------------------------------------------------------------------------------------]
A 
|---2-------------0---------------------------0-------------------4---2-------------0-----------------------------0----------------0----------]
G |----------0--------------------------------0----0------------0---------------0---------------------------------0----0----------0----0-------]
B |-------0-----0-------------------3---3-------------3h5-----------------0----0------------------3-----3----------------3------------------]
E 
1: Same as intro.
Verse 2: ( strum )
E |-------0----------- 0-----0----0----------0---------------------------------------0----------- 0-----0----0----------0-------|
A |-------3----------- 0-----0----0----------3---------------------------------------3----------- 0-----0----0----------3-------|
D |-------2 -----------0-----0----0----------2-------------------------4------------2 -----------0-----0----0----------2-------|
G |-------0------------2-----2----2----------0------Pick---------0---------------0------------2-----2----2----------0-------|
B |-------0------------3-----0----3----------3---------------3\5------------------ 0------------3-----0----3----------3-------|
E |-------3------------2-----3----2----------0-------------------------------------- 3------------2-----3----2----------0-------|
Bridge:  ( strum )
																Am           ?
E |--------0---------0--------|
A |--------0 
|--------2---------2--------|
G |--------2---------0--------|
B |--------1---------3--------|
E |--------0---------0--------|
Note: I'm not sure what ? chord is, so I will just call it Em7, It's something like that.
Chorus:
An easy strumming pattern of    G     D     Em7      G    (  x4 )
Verse 3: Same as verse 2.
Bridge:
Chorus:
Solo: ( This is one cool solo. )
E |-------------------------------------------------------------------------------------------------------------------------------------------------------------------------|
A |-------------------------------------------------------------------------------------------------------------------------------------------------------------------------|
D |-------------------------------------------------------------------------------------------------------------------------------------------------------------------------|
G |-12-------------------12p11h12---------------------------------------------------------------------------------------------12--11--9----9h11--12----|
B |------10--12--10--------------------------------------------10h12--------------------12--10h12------12---10----------------------------------------|
E |----------------------------------------10---12---15---12-------------12---12---10----------------- 10---------------------------------------------------|
E |-------------------------------------------------------------------------------------------------------------------------------------------------------------------------|
A |-------------------------------------------------------------------------------------------------------------------------------------------------------------------------|
D 
|-------------------12--11---9--------------------------------------12---11--9---9----9----9---7--------------------------------------------12--11--9--|
B |--10h12p10------------------------------------------12---10-------------------8----7----8---5----10h12------------------12---10-----------------|
E |------------------------------------12--12---12--10-----------------------------------------------------------------10h12p10-----------------------------|
E |-------------------------------------------------------------------------------------------------------------------------------------------------------------------------|
A |-------------------------------------------------------------------------------------------------------------------------------------------------------------------------|
D |-------------------------------------------------------------------------------------------------------------------------------------------------------------------------|
G |---------------------------------------------------------------------------------------------9---9---9---7-------------------------------------------12--11--9--|
B |----8----7----8----5------10h12-----------------------------------------------------8---7---8---5---10h12------------------12---10-----------------|
E |----7----5----7----3-----------------10h12p10----15--14---12h14---12----------------------------------10h12p10----------------------------|
 
E |------------------------------------|
A |------------------------------------|
D |------------------------------------|
G |------------------------------------|
B |------8------7------8-----12---|
E |------7------5------7-----12---|
Bridge:
Chorus:
Outro: ( same as intro )
End on Em7
Lyrics.
Intro:
Verse 1: 
	It has been so long,
	that I have been here,
	and now that I?m leaving,
	the good times vanish in the air.
Verse 2:
	And when we meet someday,
	we?ll look back on what we?ve done,
	and tell each other stories,
	of now and when were young.
Bridge:
Chorus:
	Goodbye my friend,
	I?ll see you again,
	I?ll be here waiting,
	waiting for a chance.
Verse 3:
	Hope we both have good lives,
	and remember all the times,
	when we were both out here,
	planning our lives.
Bridge:
Chorus:
Solo:
Bridge:
Chorus:
Outro:
End on Em7
Tap to rate this tab
# A B C D E F G H I J K L M N O P Q R S T U V W X Y Z