Song name
# A B C D E F G H I J K L M N O P Q R S T U V W X Y Z

Jagex - Runescape Theme tab

(/) Slide Up  (\) Slide Down  (h) Hammer On  (p) Pull Off  (b) Bend (r) Release (v) Vibrato

           (INTRO)(Don't mute, let ALL notes ring)
E|----------1-0-----------------------|
B|-----3--------1-3-------------------|
G|--0---------------------------------|
D|------------------------------------|
A|------------------------------------|
E|------------------------------------|

         (Anything Else)(Commas used to separate quick notes)
E|----------------------------------------------------|
B|----------------------------------------------------|
G|----------------------------------------------------|
D|----------------------------------------------------|
A|--5-5555--5-5555-3-5-5555--5-5555-3-----------------|
E|--3-3333--3-3333-1-3-3333--3-3333-1-----------------|

E|------------------------------------------------------------------------|
B|--8----15----11,10,8,11-10,8----3-8----15----18,19,12,15--6,5,1,3-------|
G|------------------------------------------------------------------------|
D|------------------------------------------------------------------------|
A|------------------------------------------------------------------------|
E|------------------------------------------------------------------------|

E|-----------------------------------------------------------------------|
B|-----------------------------------------------------------------------|
G|--5----12----15,14,12,15-14,12----5----12----0,10,9,0,5----------------|
D|-----------------------------------------------------------------------|
A|-----------------------------------------------------------------------|
E|-----------------------------------------------------------------------|

E|-------------------------------------------------------------------------------|
B|-------------------------------------------------------------------------------|
G|--Repeat Row 2(I prefer doing it the way in the video)-------------------------|
D|--Repeat Row 2(But This Makes It Simple)---------------------------------------|
A|-------------------------------------------------------------------------------|
E|-------------------------------------------------------------------------------|

E|-----------------------------------------------------------------------|
B|-----------------------------------------------------------------------|
G|--Repeat Row 3 and 4---------------------------------------------------|
D|--Repeat Row 3 and 4---------------------------------------------------|
A|-----------------------------------------------------------------------|
E|-----------------------------------------------------------------------|
             (There's a squeal somewhere here,but I cant find it)
E|----------------------------------------------------------------------|
B|--8----10-11-10-8-6-8------8----10-11-10-8-6-5------------------------|
G|----------------------------------------------------------------------|Repeat Twice
D|----------------------------------------------------------------------|Repeat Twice
A|----------------------------------------------------------------------|
E|----------------------------------------------------------------------|

E|----------------------------------------------------------------------|
B|----------------------------------------------------------------------|
G|----------------------------------------------------------------------|
D|-----------------------2-2222-----------------------------------------|
A|--5-5555-4-4444-3-3333-2-2222-5---------------------------------------|
E|--3-3333-2-2222-1-1111-0-0000-3---------------------------------------|

E|---------------------------------------------------------------------|
B|---------------------------------------------------------------------|
G|--Repeat Row 3 and 4-------------------------------------------------|
D|--Repeat Row 3 and 4-------------------------------------------------|
A|---------------------------------------------------------------------|
E|---------------------------------------------------------------------|

E|---------------------------------------------------------------------|
B|---------------------------------------------------------------------|
G|--Repeat Row 5-------------------------------------------------------|
D|--Repeat Row 5-------------------------------------------------------|
A|---------------------------------------------------------------------|
E|---------------------------------------------------------------------|

E|---------------------------------------------------------------------|
B|--8----15----11,10,8,11-10,8-----------------------------------------|
G|---------------------------------------------------------------------|
D|---------------------------------------------------------------------|
A|---------------------------------------------------------------------|
E|---------------------------------------------------------------------|

Tabs Made by Isitworkingtoo


							http://www.guitartabcreator.com
Tap to rate this tab
 
# A B C D E F G H I J K L M N O P Q R S T U V W X Y Z