James Brown - Play That Funky Music tab

ok well this is the intro to it and just repeat it till u feel it necessary to move on.


e|---------------------------------------------------------------------------|
B|---------------------------------------------------------------------------|
G|---------------------------------------------------------------------------|
D|---------------------------------------------------------------------------|
A|---------7-5-7-------5h7-------7-5-7------5h7-------7-5-7-------5h7--------|
E|---0-0----------5h7-------0-0--------5h7-------0-0---------5h7-------------|

e|---------------------------------------------------------------------------|
B|---------------------------------------------------------------------------|
G|---------------------------------------------------------------------------|
D|----------------------------------7-5-7-------5h7-------7-5-7------5h7-----|
A|---------7-5-7-------5h7---0-0-----------5h7-------0-0--------5h7----------|
E|---0-0----------5h7--------------------------------------------------------|

e|---------------------------------------------------------------------------|
B|---------------------------------------------------------------------------|
G|---------------------------------------------------------------------------|
D|---------------------------------9-7-9-------7h9---------7-5-7-------5h7---|
A|--------7-5-7-------5h7----2-2----------7h9--------0-0----------5h7--------|
E|---0-0---------5h7---------------------------------------------------------|

e|---------------------------------------------------------------------------|
B|---------------------------------------------------------------------------|
G|---------------------------------------------------------------------------|
D|---------------------------------------------------------------------------|
A|--------7-5-7-------5h7---------7-5-7-------5h7----------------------------|
E|---0-0---------5h7--------0-0----------5h7---------------------------------|
Tap to rate this tab
 
# A B C D E F G H I J K L M N O P Q R S T U V W X Y Z