Song name
# A B C D E F G H I J K L M N O P Q R S T U V W X Y Z

James Elmore - I Need You tab

-----------------------------------------------------------------------------
                           I NEED YOU - Elmore James
-----------------------------------------------------------------------------

Tabbed by:refewz

Tuning: Open D (DADF#AD)
I've tabbed out James' two slide guitar solos in I Need You. There are some
sections during the verses not included here, but they just contain more
guitar noodling which is similar to the playing found in the solos. The
chord progression follows the 8-bar blues pattern as opposed to the usual
12-bar progression.

INTRO:         D                                           G                
D |-12-12--10-|-12-------12--------|------------12--------|-----10-12-------|
A |-----------|------/12----12-----|---------12----12-----|-----------12----|
F#|-----------|----------------/12-|------12----------/11-|-------------/12-|
D |-----------|--------------------|-12-------------------|-12--------------|
A |-----------|--------------------|----------------------|-----------------|
D |-----------|--------------------|----------------------|-----------------|

                            D                      A
D |---------------12-12-12-|------------12--------|------------12-----------|
A |------------------------|-12------------12-----|---------12-----12\10----|
F#|------------------------|----12------------/12-|----------------------12-|
D |-12-(12)-12-------------|-------12-------------|-12----------------------|
A |------------------------|----------------------|----12-------------------|
D |------------------------|----------------------|-------------------------|

   D   G   D  A
D |-------|------|
A |-------|------|
F#|-------|------|
D |-12----|------|
A |-------|------|
D |-------|------|


SOLO:             D
D |--------12----|-12------------12-10----|---------12----12-----|
A |-----12----12-|----12------12-------12-|------------12----/12-|
F#|-/12----------|---------12-------------|-/12------------------|
D |--------------|------------------------|-----12---------------|
A |--------------|------------------------|----------------------|
D |--------------|------------------------|----------------------|
   G                              D                  A
D |-12--------12-------|---------|---------12\10----|----------12\10--------|
A |--------12----12----|------12-|---------------12-|---------------12\10---|
F#|-----12---------/11-|---------|-/12--------------|-/12----------------/12|
D |--------------------|-12\-----|-----12\----------|-----12----------------|
A |--------------------|---------|------------------|--------12-------------|
D |--------------------|---------|------------------|-----------------------|

   D   G   D  A
D |-------|------|
A |-------|------|
F#|-------|------|
D |-12----|------|
A |-------|------|
D |-------|------|
Tap to rate this tab
# A B C D E F G H I J K L M N O P Q R S T U V W X Y Z