Song name
# A B C D E F G H I J K L M N O P Q R S T U V W X Y Z

James Vincent Mcmorrow - We Are Ghosts tab

*First tab so sorry if it's not completely up to par/hard to understand*

Capo 2

h=hammer on

Intro and Verses:
E|-------------------------------------------------------------|
B|---------1-------3---3---0-----------1-------3---3---0-------|
G|---2---2---2---2-----------0---2---2---2---2-----------0---0-|  (repeat)
D|-----2-------2-----2---2---------2-------2-----2---2-----2---| 
A|-0---------------------------0-------------------------------|
E|-------------------------------------------------------------|

Chorus:
               Fmaj7                              C
E|---------------------------------|---------------------------------|
B|---------1---------------1-------|---------1---------------1-------|
G|---2---2---2---2---2---2---2---2-|---0---0---0---0---0---0---0---0-|
D|-----3-------3-------3-------3---|-----2-------2-------2-------2---|
A|---------------------------------|-3---------------3---------------|
E|-1---------------1---------------|---------------------------------|


                G                                  D
E|---------------------------------|---------2---------------2-------|
B|---------3---------------3-------|---3---3---3---3---3---3---3---3-|
G|---0---0---0---0---0---0---0---0-|-----2-------2-------2-------2---|
D|-----0-------0-------0-------0---|-0---------------0---------------|
A|---------------------------------|---------------------------------|
E|-3---------------3---------------|---------------------------------|



Outro:
    Fmaj7          C               G           
E|-----------------------------------------------------------------|
B|---------1---1---1---1---1---1---0---0---0---0---0---0---0---0h1-|
G|---2---2-2---2---0---0---0---1---0---0---0---0---0---0---0---0---|
D|-----3-----------------------------------------------------------| 
A|-------------------3---3---3---3---------------------------------|
E|-1---------1---1-------------------3---3---3---3---3---3---3-----|

After you play the outro like that once, the Fmaj7 picking pattern changes to:
E|-----------------|
B|-1---1---1---1---|
G|-2---2---2---2---|
D|-----------------|
A|-----------------|
E|---1---1---1---1-|

Repeat outro with this Fmaj7 pattern x5 and end on G

--------------------------------------------------------------------------
That's all! I love this song but I wasnt finding any tabs that sounded accurate
 enough so I just decided to try to do it myself and this was the result. It sounds
 pretty good to me so hopefully you guys like it as well. Feel free to comment
 with corrections as my ear isn't perfect so I probably missed something. Enjoy!
Tap to rate this tab
# A B C D E F G H I J K L M N O P Q R S T U V W X Y Z