James Vincent Mcmorrow - We Are Ghosts tab

James Vincent Mcmorrow

Capo 2. Let ring throughout on the b string.

^= hammer on.

Main tune and verse.

-----^---------------------------|
----0-1---3-3-1------------------|
---2---2-2---2-2-2---------------|
--2-----2-------2----------------|            (repeat)
-0----0---0---0------------------|
---------------------------------|

Chorus

C                           G
---------------------------------------------------|
----0-3-1-1-----0-3-1-1------3---------3-----------|
---0------0-----0------0------0-0-0----0-0-0-------|
--2------------2--------------0---0-----0---0------|
-3------------3--------------2---------2-----------|
-----------------------------3---------3-----------|

C                                       D
-------------------------------------2----------2-|
------0-3-1-1-----0-3-1-1----3ó3-3----3----3--3---|
----0-------0-----0-------0---2-2---2----2ó2---2--|
--2--------------2-----------0------------0-------|
-3--------------3---------------------------------|
--------------------------------------------------|

The moon homes the light
And the moonís a spinning globe
Shedding light upon the road
The birds were flying
And a bird without its wings is a low and tragic thing

We are ghosts
We are ghosts amongst these hills
From the trees around and green
To the ground beneath our feet
We are ghosts
We are ghosts amongst these hills
Pressing out along the shore
Pressing out along the shore

(Unsure of line)
(Unsure of line)
And is only to be heard
And now Iím gone
I will come again in Spring
And the harvest can begin

We are ghosts
We are ghosts amongst these hills
From the trees of life and green
To the ground beneath our feet
We are ghosts
We are ghosts amongst these hills
Pressing out along the shore
Pressing out along the shore

Finish with strumming chorus chords.

From Jack B.
Tap to rate this tab
 
# A B C D E F G H I J K L M N O P Q R S T U V W X Y Z