Song name
# A B C D E F G H I J K L M N O P Q R S T U V W X Y Z

Jamie Woon - Robots tab

Artist : Jamie Woon
Album  : Breathing Binary EP
Year   : 2004
Song   : Robots


Intro
[Guitar 1]
e|----------------|
B|----------------|
G|--------0-------|
D|------4----5~---|
A|----2------x----|
E|--0--------3~---|


Verse
[Guitar 1]                              
e|---------------------------------|
B|---------------------------------|
G|--------0--------0--0--0--0--0---|
D|------4----5~----5--5--5--5--5---|
A|----2------x-----x--x--x--x--x---|
E|--0--------3~----3--3--3--3--3---|

e|--------------------------------------------------------|
B|--------------------------------------------------x-8---|
G|--------0--------0--0--0--0--0--7--7--7--7--7--7--7-7---|
D|------4----5~----5--5--5--5--5--5--5--5--5--5--5--5-5---|
A|----2------x-----x--x--x--x--x--5--5--5--5--5--5--5-5---|
E|--0--------3~----3--3--3--3--3--x--x--x--x--x--x--x-x---|


Chorus
[Guitar 1]                              
e|--0--0------0--0-0---|--0--0------0--0-0---|
B|--0--0------0--0-0---|--0--0------0--0-0---|
G|--4--4--4-4-4--4-4---|--4--4--4-4-4--4-4---|
D|--5--5--5-5-5--5-5---|--4--4--4-4-4--4-4---|
A|--5--5--5-5-5--5-5---|--2--2--2-2-2--2-2---|
E|--3--3--3-3-3--3-3---|--0--0--0-0-0--0-0---|

[Guitar 2]  
e|----------------------------|---------------------------|
B|----------------------------|---------------------------|
G|--12--12--12-12-12--12-12---|-11--11--11-11-11--11-11---|
D|--12--12--12-12-12--12-12---|-12--12--12-12-12--12-12---|
A|--10--10--10-10-10--10-10---|-10--10--10-10-10--10-10---|
E|--12--12--12-12-12--12-12---|--0---0---0--0--0---0--0---|

[Guitar 3]  
e|------------------------------------------------------|
B|------------------------------------------------------|
G|--9--9--9/11-11-11/12-12-12/14-16/17/16---16/17/16/---|
D|--x--x--x/x---x--x/x--x--x-/x--x-/x-/x----x-/x-/x-/---|
A|--7--7--7/9---9--9/10-10-10/12-14/15/14---14/15/14/---|
E|------------------------------------------------------|


Verse 2
[Guitar 1]                              
e|---------------------------------|
B|---------------------------------|
G|--------0--------0--0--0--0--0---|
D|------4----5~----5--5--5--5--5---|
A|----2------x-----x--x--x--x--x---|
E|--0--------3~----3--3--3--3--3---|

e|--------------------------------------------------------|
B|--------------------------------------------------x-8---|
G|--------0--------0--0--0--0--0--7--7--7--7--7--7--7-7---|
D|------4----5~----5--5--5--5--5--5--5--5--5--5--5--5-5---|
A|----2------x-----x--x--x--x--x--5--5--5--5--5--5--5-5---|
E|--0--------3~----3--3--3--3--3--x--x--x--x--x--x--x-x---|

[Guitar 2]                              
e|-------------------------------------------------------|
B|--x-8-x-8-x-8-x-8-x-8-8---8-x-8-x-8-x-8/10-10/11v/10---|
G|--x-x-x-x-x-x-x-x-x-x-x---x-x-x-x-x-x-x/x--x-/x--/-x---|
D|--x-5-x-5-x-5-x-5-x-5-5---5-x-5-x-5-x-5/7--7-/8v-/-7---|
A|-------------------------------------------------------|
E|-------------------------------------------------------|


Chorus 2
[Guitar 1]                              
e|--0--0------0--0-0---|--0--0------0--0-0---|
B|--0--0------0--0-0---|--0--0------0--0-0---|
G|--4--4--4-4-4--4-4---|--4--4--4-4-4--4-4---|
D|--5--5--5-5-5--5-5---|--4--4--4-4-4--4-4---|
A|--5--5--5-5-5--5-5---|--2--2--2-2-2--2-2---|
E|--3--3--3-3-3--3-3---|--0--0--0-0-0--0-0---|

[Guitar 2]  
e|----------------------------|---------------------------|
B|----------------------------|---------------------------|
G|--12--12--12-12-12--12-12---|-11--11--11-11-11--11-11---|
D|--12--12--12-12-12--12-12---|-12--12--12-12-12--12-12---|
A|--10--10--10-10-10--10-10---|-10--10--10-10-10--10-10---|
E|--12--12--12-12-12--12-12---|--0---0---0--0--0---0--0---|

[Guitar 3]  
e|------------------------------------------|-----2-------2-----|
B|------------------------------------------|-------3-------3---|
G|--9--9--9/11-11-11/12-12-12/14-16/17/16---|--4b-------4b------|
D|--x--x--x/x---x--x/x--x--x-/x--x-/x-/x----|--x--------x-------|
A|--7--7--7/9---9--9/10-10-10/12-14/15/14---|--2b-------2b------|
E|------------------------------------------|-------------------|


Bridge
**Play verse riff with different variations**


Harmonic Passage
[Guitar 1]  
e|------------------------------------------|
B|------------------------------------------|
G|----7*-12*12*7*12*12*7*12*12*7*12*12*7*---|
D|--x---------------------------------------|
A|------------------------------------------|
E|------------------------------------------|
Tap to rate this tab
# A B C D E F G H I J K L M N O P Q R S T U V W X Y Z