Song name
# A B C D E F G H I J K L M N O P Q R S T U V W X Y Z

Jamisonparker - Home tab

-------------------------------------------------------------------------------
			     HOME - Jamison Parker
-------------------------------------------------------------------------------
Tabbed by: Evan Reyes
Email: evanreyes2951@yahoo.com

Tuning: 1/2 step down (EbAbDbGbBbeb)

Intro/Verse chords:
e|-----------------------------|
B|-----------------------------|
G|---4-------------------------|
D|---4---4---2-----------------|
A|---2---4---2-----------------|
E|-------2---0-----------------|

Intro riff (played once):
e|-----------------------------|
B|---7--5--4--5--4--2--0-------|
G|-----------------------------|
D|-----------------------------|
A|-----------------------------|
E|-----------------------------|

Chorus:
e|-----------------------------|
B|-----------------------------|
G|---4-------------------------|
D|---4---4---6---2-------------|
A|---2---4---6---2-------------|
E|-------2---4---0-------------|

Fill before second chorus:
e|-----------------------------|
B|-----------------------------|
G|-----------------------------|
D|---6---4---2-----------------|
A|---6---4---2-----------------|
E|---4---2---0-----------------|

The rest of the song is either the verse or chorus chords
Tap to rate this tab
# A B C D E F G H I J K L M N O P Q R S T U V W X Y Z