Song name
# A B C D E F G H I J K L M N O P Q R S T U V W X Y Z

Japanese Voyeurs - Dumb tab

Tabbed by: Reanne

http://www.japanesevoyeurs.com/

corrections and comments are appreciated :)

Tuning: Drop D

INTRO/VERSE
e---------------------------------|
B---------------------------------|
G---------5-5-4-4-2-2-2-2-4-4-5-5-|
D-4-4-4-4-5-5-4-4-2-2-2-2-4-4-5-5-|
A-4-4-4-4-3-3-2-2-0-0-0-0-2-2-3-3-|
D-4-4-4-4-------------------------| x2 but play the last two chords faster the second time

Prechorus "i still wanna screw you"
e------------------------------------|
B------------------------------------|
G-----------------4-4-4-4-4-4-4-4-/\/|
D-0-0-0-0-0-0-0-0-4-4-4-4-4-4-4-4-/\/|
A-0-0-0-0-0-0-0-0-2-2-2-2-2-2-2-2-/\/|
D-0-0-0-0-0-0-0-0-----------------/\/| Sliiiiiddeeeeeee

"i guess im dumb" just bass then: 
Part 1v(played after vocal lines)
e-------|
B-------|
G-5-4-2-|
D-5-4-2-|
A-3-2-0-|
D-------|

Part 2v played before the verse
e---------------------------------|
B---------------------------------|
G-4-4-4-4-7-7-7-7-6-6-6-6-6-6-6-6-|
D-4-4-4-4-7-7-7-7-6-6-6-6-6-6-6-6-|
A-4-4-4-4-5-5-5-5-4-4-4-4-4-4-4-4-|
D-4-4-4-4-------------------------|

CHORUS "youre so dumb"
e---------------------------------|
B---------------------------------|
G---------7-7-7-7-6-6-6-6-4-4-2---|
D-4-4-4-4-7-7-7-7-6-6-6-6-4-4-2-4-|
A-4-4-4-4-5-5-5-5-4-4-4-4-2-2-0-4-|
D-4-4-4-4-----------------------4-| x3 last time finish on the C#

here there's the bass playing:
G---------------------------------------------------|
D---------------------------------------------------|
A-------------------------------------3-----------3-|
D-4-4-4-4-4-4--4-4-4-4-4-4--4-4-4-4-4---4-4-4-4-4---|

And then you can join in!
e--------------------------------|
B--------------------------------|
G--------------------------------|
D-----4----------4-------0-2-3-4-|
A---------3----------3-----------|
D-4-4---4---4--4---4---4---------|
PLAY THIS 4 TIMES^

end with the chorus and
e-----------------------------------|
B-----------------------------------|
G---------7-7-7-7-6-6-6-6-6-6-6-6---|
D-4-4-4-4-7-7-7-7-6-6-6-6-6-6-6-6-4-|
A-4-4-4-4-5-5-5-5-4-4-4-4-4-4-4-4-4-|
D-4-4-4-4-------------------------4-|

Its a fun and easy song to learn, enjoy!!
Tap to rate this tab
# A B C D E F G H I J K L M N O P Q R S T U V W X Y Z