Song name
# A B C D E F G H I J K L M N O P Q R S T U V W X Y Z

Japanese Voyeurs - Smother Me tab

Yet another JV tab from me. I'm not too sure about 
most of the parts because I'm unfamiliar with this tuning:
C
G
Eb
Bb
F
C
In the tab i'll just write the strings as standard because 
im lazy but make sure you tune down! I'm not sure whether 
this is the tuning Tom Lamb plays in but it sounds ok to me.

Intro/verse
e---------|
B---------|
G---------|
D---------|
A--7-8-7--|
E-0-0-----|x8

Pre Chorus "Spit and spew"
e-------------------------------|--------|
B-------------------------------|--------|
G-------------------------------|--------|
D--0-5--0-5-0-5--0-3--0-3-0-3-2-|-2----2-|
A-------------------------------|--------|
E-3----3--------1----1----------|1--0-0--|x4

Chorus "What I do"
e-------------------------------------|
B-------------------------------------|
G-------------------------------------|
D-2-2-2-7-7-8-8-7-7-12-12-10-10-14-14-|
A-2-2-2-7-7-8-8-7-7-12-12-10-10-14-14-|
E-0-0-0-5-5-6-6-5-5-10-10-8--8--12-12-|x4

2nd verse (i know this isnt right but it's similar to 
this and it sounds ok when i play it, have a mess 
around and email me the correction please!)
e-----------------|
B-----------------|
G-9h10p9--10p9--9-|
D-----------------|
A--------0-----0--|
E-----------------|

Pre Chorus
Chorus
I dont know the 3rd verse so you'll have to work 
it out, i'll try to when i have time.

Last Chorus
I think this is higher pitched so i play:
e---------------------------------------|
B---------------------------------------|
G-9-9-9-9-9-10-10-9-9-14-14-12-12-16-16-|
D-9-9-9-7-7-8--8--7-7-12-12-10-10-14-14-|
A-7-7-7---------------------------------|
E---------------------------------------|

Edit this and have a noodle around, this is just 
a rough guideline. Email me your corrections please reanneyork@gmail.com! -Reanne
Tap to rate this tab
# A B C D E F G H I J K L M N O P Q R S T U V W X Y Z