Song name
# A B C D E F G H I J K L M N O P Q R S T U V W X Y Z

Jason Mraz - One Love tab

    ______________________
   / Jason Mraz          /  This is an old roots reggae classic by Bob Marley
  / One Love            /  & the Wailers. It first released on their '65 album
 / (Bob Marley cover)  /  "The Wailing Wailers" and re-issued on their '73 album
/_____________________/  "Exodus". Here's a link to Mraz's studio version:
                         www.youtube.com/watch?v=jPh-HQfcC74

 Chords:
Capo on 1st fret.
First is the actual name of the chord,
and below in the brackets is the name of the chord without capo:

     Ab   Db   Eb   Fm
    (G)  (C)  (D)  (Em)
e:---3----3----2----0----:
B:---0----1----3----0----:
G:---0----0----2----0----:
D:---0----2----0----2----:
A:---x----3---------2----:
E:---3--------------0----:

--------------------------------------------------------------------------------


 Intro:
Here he plays four bars of this rhythm pattern.
  N.C.
|-x---x-----x-x--x-|
|-x---x-----x-x--x-|
|-x---x-----x-x--x-|
|-x---x-----x-x--x-|
|-x---x-----x-x--x-|
|-x---x-----x-x--x-|



 Intro Chorus:
Continue the rhythm pattern, and add the root notes on the beat 1 as the tab
shows. Then move on to strum the rest of the chords regularly.
  Ab                                    Eb
|-----x-----x-x--x-|-----x-----x-x--x-|-----x-----x-x--x-|-----x-----x-x--x-|
|-----x-----x-x--x-|-----x-----x-x--x-|-----x-----x-x--x-|-----x-----x-x--x-|
|-----x-----x-x--x-|-----x-----x-x--x-|-----x-----x-x--x-|-----x-----x-x--x-|
|-----x-----x-x--x-|-----x-----x-x--x-|-0---x-----x-x--x-|-----x-----x-x--x-|
|-----x-----x-x--x-|-----x-----x-x--x-|-----x-----x-x--x-|-----x-----x-x--x-|
|-3---x-----x-x--x-|-----x-----x-x--x-|-----x-----x-x--x-|-----x-----x-x--x-|

| Db | Ab | Eb | Ab |

| Ab |



 1st Verse:
| Ab* | Fm | Db | Ab |                   *Ab-fill 1           **Ab-fill 2
                                        |-----3-------3---|  |-----------------|
| Ab* | Fm | Db | Ab** |                |-----0-------0---|  |-----0--0---1--0-|
                                        |-----0-------0---|  |-----0--0---0--0-|
| Ab* | Fm | Db | Ab |                  |-----0-------0---|  |-----0--0---0--0-|
                                        |-----2-------0---|  |--------.---.----|
| Ab* | Fm | Db Eb | Ab |               |-3-------2-------|  |-3---------------|
                                                                   . = staccato


 Chorus:                                  *Eb-fill             Eb
| Ab | Ab | Eb* | Eb |                   |-----2--2----2---2-|----3---5--------|
                                         |-----3--3----3---3-|----3---3---3--3-|
| Db | Ab | Eb | Ab |                    |-----2--2----2---2-|----2---2---2--2-|
                                         |-0--------0------.-|----.-------0--0-|
| Ab |                                   |-------------------|-----------------|
                                         |-------------------|-----------------|


 2nd Verse:
Similar to previous verse, and break on the last Db.



 Chorus:
||: Ab | Ab | Eb* | Eb |

| Db | Ab | Eb | Ab :||

| Db | Ab | Eb | Ab |



 Outro Chorus:
 As in the intro chorus, strum the root notes on the beat 1.
  Ab                 Ab                 Eb                 Eb
|-----x-----x-x--x-|-----x-----x-x--x-|-----x-----x-x--x-|-----x-----x-x--x-|
|-----x-----x-x--x-|-----x-----x-x--x-|-----x-----x-x--x-|-----x-----x-x--x-|
|-----x-----x-x--x-|-----x-----x-x--x-|-----x-----x-x--x-|-----x-----x-x--x-|
|-----x-----x-x--x-|-----x-----x-x--x-|-0---x-----x-x--x-|-----x-----x-x--x-|
|-----x-----x-x--x-|-----x-----x-x--x-|-----x-----x-x--x-|-----x-----x-x--x-|
|-3---x-----x-x--x-|-----x-----x-x--x-|-----x-----x-x--x-|-----x-----x-x--x-|

  Db                 Ab                 Eb                 Ab
|-----x-----x-x--x-|-----x-----x-x--x-|-----x-----x-x--x-|-----x-----x-x--x-|
|-----x-----x-x--x-|-----x-----x-x--x-|-----x-----x-x--x-|-----x-----x-x--x-|
|-----x-----x-x--x-|-----x-----x-x--x-|-----x-----x-x--x-|-----x-----x-x--x-|
|-----x-----x-x--x-|-----x-----x-x--x-|-0---x-----x-x--x-|-----x-----x-x--x-|
|-3---x-----x-x--x-|-----x-----x-x--x-|-----x-----x-x--x-|-----x-----x-x--x-|
|-----x-----x-x--x-|-3---x-----x-x--x-|-----x-----x-x--x-|-3---x-----x-x--x-|

  Ab                 Ab                 Eb                 Eb
|-----x-----x-x--x-|-----x-----x-x--x-|-----x-----x-x--x-|-----x-----x-x--x-|
|-----x-----x-x--x-|-----x-----x-x--x-|-----x-----x-x--x-|-----x-----x-x--x-|
|-----x-----x-x--x-|-----x-----x-x--x-|-----x-----x-x--x-|-----x-----x-x--x-|
|-----x-----x-x--x-|-----x-----x-x--x-|-0---x-----x-x--x-|-----x-----x-x--x-|
|-----x-----x-x--x-|-----x-----x-x--x-|-----x-----x-x--x-|-----x-----x-x--x-|
|-3---x-----x-x--x-|-----x-----x-x--x-|-----x-----x-x--x-|-----x-----x-x--x-|


| Db | Ab | Eb | Ab |

| Db | Ab | Eb | Ab |

| Db | Ab | Eb Db | Ab |




 LYRICS
*********
One Love
One Heart
Oh, let's get together now and we can feel all right

Let them all pass all their dirty remarks
There is one question I'd really love to ask
"Is there a place for the hopeless sinner
Who has hurt all mankind just to save his own believes?"
 
One Love
One Heart
Let's get together now and we can feel all right

Let's get together to fight this holy Armageddon
So when the Man comes there won't be no, no doom
Have pity on those whose chances grow thinner
'Cause there ain't no hiding place from the Father of Creation-on-on-on

One Love (what about the love?)
One Heart
Let's get together now and we can feel all right

One Love
One Heart
Let's get together now and we can feel all right
I said, let's, let's get together now and we can feel all right



Jon Sebastian Frederiksen - 19th /June /09
Just mail me at Maitinin@gmail.com with questions, comments and corrections!
Tap to rate this tab
# A B C D E F G H I J K L M N O P Q R S T U V W X Y Z