Song name
# A B C D E F G H I J K L M N O P Q R S T U V W X Y Z

Jaws - Stay In tab

no one has tabbed a jaws song so i thought i would, one of my favourite bands as well

couldn't figure out the bridge bit but got the kind of jist

E|--------------|
B|--------------|
G|--------------|
D|--------9--9--|
A|-----8-----8--|
E|--7--------7--|



E|--------------------------------------------------------------------|
B|--3--------------3--3--------------3--------------3--3--------------|
G|--------------5-----------------5--------------5-----------------5--|
D|-----4--4--2-----------4--4--2--------4--4--2-----------4--4--2-----|
A|--------------------------------------------------------------------|
E|--------------------------------------------------------------------|



E|---------------------------------------------------------------|
B|--/7-----7-----7--7--------------7-----7-----7--7--------------|
G|------------5------------------5-----------5-----------------5-|
D|------7--------------7--/9--7--------7--------------7--/9--7---|
A|---------------------------------------------------------------|
E|---------------------------------------------------------------|



E|--------------------------------------------------------------|
B|--7-----7-----7--7--------------7-----7-----7--7--------------|
G|-----------9-----------------9-----------9-----------------9--|
D|-----7--------------7--9--7--------7--------------7--9--7-----|
A|--------------------------------------------------------------|
E|--------------------------------------------------------------|

the chords for the verse just play the bass not of the chord and then move up every now 
and again

E|--------|
B|--3--7--|
G|--5--9--|
D|--4--7--|
A|--3--8--|
E|--------|
Tap to rate this tab
# A B C D E F G H I J K L M N O P Q R S T U V W X Y Z