Song name
# A B C D E F G H I J K L M N O P Q R S T U V W X Y Z

Jay Smith - I Want It That Way tab

I found out this little cool part that goes through the whole song.


     Em               C           G
E |--------------------------------------|
B |--------------------------------------|
G |------0-----0----------0------0-------|
D |----2-----2----------2------0---------|
A |--------------0---3-------------------|
E |-0-----0-----------------3------------|

the last row of the verse you just play D instead of C

like:
       D
E |------------|
G |------3-----|
B |----2-------|
D |-0----------|
A |------------|
E |------------| 

btw it sonuds awesome if someone plays the chords meanwhile!!

//smoky
Tap to rate this tab
 
# A B C D E F G H I J K L M N O P Q R S T U V W X Y Z