Jeff Beck - Over The Rainbow tab

-----------------------------------------------------------------
Over The Rainbow - Jeff Beck
-----------------------------------------------------------------
Tabbed by: Iain Peters	
Email: Iaintbh@hotmail.com

Tuning: EADGBe Standard

I realise that much of this tab will not be the EXACT way that Jeff plays it,
however, I assure you, the actual notes written are all 100% correct**

ANYWAY, Dust off your volume knobs and whammy bars and get your teeth into this tasty tune.

Cheers. Rate and comment and whatnot

** Cannot guarantee that 100% of the notes will be correct. :P

==========================================================================
   Part A
==========================================================================

e|------13---12--8--10--12--13-----------------------------------|
B|---------------------------------(13)pb15r13-------------------|
G|--10--------------------------10-------------------------------|
D|---------------------------------------------------------------|
A|---------------------------------------------------------------|
E|---------------------------------------------------------------|

e|---------------------------------------------------------------|
B|---------------------------------------------------------------|
G|-------15--14---10--12--14--15--12--9--10--12--14~(10)---------|
D|--12-----------------------------------------------------------|
A|---------------------------------------------------------------|
E|---------------------------------------------------------------|

==========================================================================
  Now for the tricky harmonics part!
==========================================================================
              
e|---------------------------------------------------------------|
B|---------------------------------------------------------------|
G|--[7]--[3.2]~(-1)~(-4)~(+2)~(+2)~(+1)--------------------------|
D|---------------------------------------------------------------|
A|---------------------------------------------------------------|
E|---------------------------------------------------------------|
              ^ Give the whammy bar a good wiggle here and find the notes.

***************************************************************************
*OR if you can't manage to get the harmonics to sound for long enough...
***************************************************************************

e|-------22--21--17--19--21--22----------------------------------|
B|---------------------------------------------------------------|
G|--[7]----------------------------------------------------------|
D|---------------------------------------------------------------|
A|---------------------------------------------------------------|
E|---------------------------------------------------------------|

***************************************************************************

e|---------------------------------------------------------------|
B|---------------------------------------------------------------|
G|--[7]--[4]~(-2)------------------------------------------------|
D|---------------------------------------------------------------|
A|---------------------------------------------------------------|
E|---------------------------------------------------------------|

e|---------------------[12]---------[12]~(-4)~(+2)~(+2)~----------|
B|--[12]-------[7]----------[7]--------------------------[7]------|
G|--------[5]------[7]----------[5]--------------------------[7]--|
D|----------------------------------------------------------------|
A|----------------------------------------------------------------|
E|----------------------------------------------------------------|

======================================================================

e|---------------------------------------------------------------|
B|-13----13----13----13----13----13----13----13----13-15---15----|
G|----14----14----14----14----15----15----15----15---------------|
D|---------------------------------------------------------------|
A|---------------------------------------------------------------|
E|---------------------------------------------------------------|

e|-----------------------------------------------------------------------|
B|-13----13----13----13----13----15----15----15----15-17---17-18b20r15---|
G|----14----14----14----14----16----16----16----16-----------------------|
D|-----------------------------------------------------------------------|
A|-----------------------------------------------------------------------|
E|-----------------------------------------------------------------------|

e|-13--13---12--8--10--12--13------------------------------------|
B|----------------------------------13pb15r13--------------------|
G|------------------------------10-------------------------------|
D|---------------------------------------------------------------|
A|---------------------------------------------------------------|
E|---------------------------------------------------------------|

e|---------------------------------------------------------------|
B|---------------------------------------------------------------|
G|-------15--14---10--12--14--15--12--9--10--12--14~(10)---------|
D|--12-----------------------------------------------------------|
A|---------------------------------------------------------------|
E|---------------------------------------------------------------|

e|---------------------------------------------------------------|
B|-13----13----13----13----13----13----13--15---17--18-----------|
G|----14----14----14----14----15----15---------------------------|
D|---------------------------------------------------------------|
A|---------------------------------------------------------------|
E|---------------------------------------------------------------|

| /          Slide up
| \          Slide down
| h          Hammer-on
| p          Pull-off
| ~          Vibrato
| []         Natural harmonic
| ~(-4)      Depress whammy bar 4 semitones
| ~(+2)      Rise whammy bar by 2 semitones
| 13pb15r13  Bend note before striking, then release to the original note
| x          Mute note
Tap to rate this tab
 
# A B C D E F G H I J K L M N O P Q R S T U V W X Y Z