Guitaretab - guitar tabs
Song name
# A B C D E F G H I J K L M N O P Q R S T U V W X Y Z

Jeff Healey - See The Light tab

Jeff Healy Band
-See the light
--From the album "See the Light"

tabbed by Joe Daly

h=Hammer on
p=Pull off
b=Bend up
br=Bend and release
v=Vibrato
/=Slide

Note: This song is played with a cry babby peddle.

I've played it a couple of times and it sounds good.

e---------------------------------------------------------------------|
B---------------------------------------------------------------------|
G--7------------------------------------------------------------------|
D--7------5bró5p3p0--3-----------0--0-0---5bró5p3p0---3---------------|
A--5--5-5---------------3-----0-3--------------------3----------------|
E-------------------------------------------------------3--1----------|

e---------------------------------------------------------------------|
B---------------------------------------------------------------------|
G-7-------------------------------------------------------------------|
D-7-------5bró5p3p0--3-----------0--0-0---5bró5p3p0---3/0-------------|
A-5--5-5---------------3-----0-3--------------------3-----------------|
E---------------------------------------------------------------------|
[ Tab from: http://www.guitaretab.com/j/jeff-healey/135274.html ]
e---------------------------------------------------------------------|
B---------------------------------------------------------------------|
G---5--5--------------------------------------------------------------|
D---5--5--------------------5-----------------------------------------|
A---3--3--3p0--5br-3h5-3---------5b--5p3p0---5p3----------------------|
E------------------------3-3--------------5-----3---------------------|

e---------------------------------------------------------------------|
B---------------------------------------------------------------------|
G--7------------------------------------------------------------------|
D--7---------5bró5p3p0--3-----------0--0-0---5bró5p3p0---3/0----------|
A--5---5-5---------------3-----0-3--------------------3---------------|
E---------------------------------------------------------------------|

e---------------------------------------------------------------------|
B---------------------------------------------------------------------|
G--5-5-------5p3h5----------------------------------------------------|
D--5-5---5p3-------5p3h5vv-/0-----5-5--------5b-5b-5p3----------------|
A--3-3----------------------------5-5---5p3-----------3---------------|
E---------------------------------3-3---------------------------------|

e---------------------------------------------------------------------|
B---------------------------------------------------------------------|
G--7---------------------------------------------------9b--7p5h7vv----|
D--7---------5bró5p3p0--3-----------0--0-0---5bró5p3------------------|
A--5---5-5---------------3-----0-3------------------------------------|
E---------------------------------------------------------------------|
Related for See The Light tab