Song name
# A B C D E F G H I J K L M N O P Q R S T U V W X Y Z

Jeremy Camp - Be The One tab

Be The One - Jeremy Camp
Restored
Written by Jeremy Camp
 2004 Thirsty Moon River Publishing 
Stolen Pride Music (ASCAP) 
Administered by EMI Christian Music Publishing
Tabbed by: Jon Shin


[Intro]
D (addA)- xxo235   D/E (addA)- xx2235  Bm7   A2   D/F#   G


[Verse 1]
D   D/E(addA)  Bm7   A2   D/F#   G
D   D/E(addA)  Bm7   A2   D/F#   G
D/F#   G


[Chorus]
D    Bm7   G  Gm7
D    Bm7   G  Gm7


[Interlude]
Same chords as Intro


[Verse 2]
Same chords as Verse 1


Chorus


[Bridge]
A2  Am
A2  Am
A2  Am


[Solo]
Same chords as chorus


Chorus


End on D

Solos: 

[Intro & Bridge Solo]
E[-----------------------------------------------------------]
B[-10---7h8-10---7h8-7---7--7---7-7----10-10-----------------]
G[----7--------7--------9-9--9-----7-7-------6-6--7-7\-------]
D[-----------------------------------------------------------]
A[-----------------------------------------------------------]
E[-----------------------------------------------------------]


Solo 
E[-----------------10-9--------------------------------------]
B[-10---7h8-10--10------10-8-7h8p7---------/10-8-------------]
G[----7----------------------------7-9(~)-7------------------]
D[-----------------------------------------------------------]
A[-----------------------------------------------------------]
E[-----------------------------------------------------------]

Solo Cont'd
E[-----------------------------------------------------------]
B[-7---7--7--------7-8-7-10-8-----13(~)-11-------------------]
G[---9--9---9-9-7-------------7------------------------------]
D[-----------------------------------------------------------]
A[-----------------------------------------------------------]
E[-----------------------------------------------------------]
Tap to rate this tab
# A B C D E F G H I J K L M N O P Q R S T U V W X Y Z