Song name
# A B C D E F G H I J K L M N O P Q R S T U V W X Y Z

Jesse Mccartney - Whats Your Name tab

-------------------------------------------------------------------------------
			     Whats Your Name - Theory of a Deadman
-------------------------------------------------------------------------------
Tabbed by: Innersolace
Email: cylindersix@yahoo.com

Tuning: Drop D (really played in like Drop B or A but this sounds good too)
Intro (quiet guitar)
e|---------------------------------------------------------------------------|
B|---------------------------------------------------------------------------|
G|---------------------------------------------------------------------------|
D|---------------------------------------------------------------------------|
A|-7-8-9-9-11-9----12-11-9--9-11-9--9-7-6-2--2-4-----------------------------|
E|-7-8-9-9--9-9----12-11-9--9--9-9--9-7-6-2--2-2-----------------------------|

Riff A                        Distorted comes in >
e|---------------------------------------------------------------------------|
B|---------------------------------------------------------------------------|
G|---------------------------------------------------------------------------|
D|-------------------------------------------------h-h----h-h----------------|
A|------------------------------------------------7-6-4--7-6-0-4-------------|
E|------------------------------------------------7-6-4--7-6-0-4-------------|

Verse (Palm muted w/ distortion)
e|--------------------------------------------------------------------------------------|
B|--------------------------------------------------------------------------------------|
G|-----------------------------------6----------------------4----------------6----------|
D|-4------2-----4-----2------4-------6---------4------2-----4----2-----4-----6----4-----|
A|-4------2-----4-----2------4-------4(x16)----4------2-----2(x2)2-----4-----4(x8)4-----|
E|-4(x16)-2(x6)-4(x3)-2(x4)--4-(x16)-----------4(x16)-2(x8)------2-(x2)4-(x8)-----4(x16)|

Chorus
e|---------------------------------------------------------------------------|
B|---------------------------------------------------------------------------|
G|---------------------------------------------------------------------------|
D|---------------------------------------------------------------------------|
A|-7-8-9-9-9--12-11-9-9--7-6-2-2--------(strumming not 100% accurate)--------|  (x2)
E|-7-8-9-9-9--12-11-9-9--7-6-2-2---------------------------------------------|

Riff A
e|---------------------------------------------------------------------------|
B|---------------------------------------------------------------------------|
G|---------------------------------------------------------------------------|
D|--h-h----h-h---------------------------------------------------------------|
A|-7-6-4--7-6-0-4------------------------------------------------------------|
E|-7-6-4--7-6-0-4------------------------------------------------------------|

Guitar Solo
e|---------------------------------------------------------------------------|
B|---------------------------------------------------------------------------|
G|---------------------------------6-----------------------------------------|
D|-4------2-----1-----2------4-----6-----4-----------------------------------|
A|-4------2-----1-----2------4-----4(x8)-4-----------------------------------|
E|-4(x16)-2(x8)-1(x4)-2(x4)--4(x8)-------4(x16)------------------------------|

Repeat Intro riff

Bridge
(Hold out and alternate these chords)
e|-------------------------------------------------------------------------------|
B|-12----5-----------------------------------------------------------------------|
G|-11----4-----------------------------------------------------------------------|
D|--9----2-----------------------------------------------------------------------|
A|--9----2-----------------------------------------------------------------------|
E|--9----2-----------------------------------------------------------------------|

Repeat Chorus over and over but just alternate the two main chords
e|------------------------------------------------------------------------------|
B|------------------------------------------------------------------------------|
G|------------------------------------------------------------------------------|
D|-9--2-------------------------------------------------------------------------|
A|-9--2-------------------------------------------------------------------------|
E|-9--2-------------------------------------------------------------------------|


| /  slide up
| \  slide down
| h  hammer-on
| p  pull-off
| ~  vibrato
| +  harmonic
| x  Mute note
===============================================================================
Tap to rate this tab
 
# A B C D E F G H I J K L M N O P Q R S T U V W X Y Z