Song name
# A B C D E F G H I J K L M N O P Q R S T U V W X Y Z

Jet - Stand Up tab

e]------------------3-3-----------------------------3-3-------------|
B]-6-4s3--6-8-12----3-3-----------------------------3-3-------------|
G]-7-5s4--7-9-12----0-0-----------------------------0-0-0-----------|
D]------------------0-0-----------------------------0-0--3p0--------|
A]------------------2-2-----------------------------2-2-----3-1-----|
E]------------------3-3-----------------------------3-3--------1-3--|                   
bord to live, to young to die"
e]----------------------------------3-3-----------------------------|
B]----------------------------------3-3-----------------------------|
G]----------------------------------0-0-0---------------------------|
D]----------------------------------0-0--3p0------------------------|
A]----------------------------------2-2-----3-1---3-----------------|
E]----------------------------------3-3---------1-------------------|
   "Get to tall cut you down to size"               "TV fear sells brand

e]-------------------------------------------3-0----0-3-------3-2---|
B]-------------------------------------------3-2----2-3-------3-3---|
G]--------5/6-------5----3----5--------------0-2----2-0-------0-2---|
D]-------------------------------5p3h5-------0-2----2-0-------0-0---|
A]--------3/4-------3----1----3--------------2-0----0-2-------2-----|
E]-------------------------------------------3--------3-------3-----|
"new cars my love lives with my guitar"     "easy to feel that free"

e]-------------2-0-----------0-3---------------3-2------------------|
B]-------------3-2-----------2-3---------------3-3------------------|
G]-5b-5--------2-2-----------2-0---------------0-2------------------|
D]-----5bp3----0-2-----------2-0---------------0-0------------------|
A]---------1---0-0-----------0-2---------------2--------------------|
E]-----------------------------3---------------3--------------------|
            "when you know what you want to be"

e]----0-0------2-2----------0------2-----------0-0---------2-2------|
B]----0-0------3-3----------2------3-----------0-0---------3-3------|
G]----1-1------2-2----------2------2-----------1-1---------2-2------|
D]----2-2------0-0----------2------0-----------2-2---------0-0------|
A]----2-2-------------------0------------------2-2------------------|
E]----0-0--------------------------------------0-0------------------|
   "Stand up your time has come back around, Stand up theres nothing

e]---0-------2---------0-0----------2-2------0---2------------------------|
B]---2-------3---------0-0----------3-3------2---3------------------------|
G]---2-------2---------1-1----------2-2------2---2------------------------|
D]---2-------0---------2-2----------0-0------2---0------------------------|
A]---0-----------------2-2-------------------0----------------------------|
E]---------------------0-0------------------------------------------------|   holding 
down. Walk on with your feet off the ground

  [on piano]
e]--2--------------0--------0----2----------------0-------0-----------------|
B]--3--------------2--------0----3----------------2-------0-----------------|
G]--2--------------2--------1----2----------------2-------1-----------------|
D]--0--------------2--------2----0----------------2-------2-----------------|
A]-----------------0--------2---------------------0-------2-----------------|
E]--------------------------0-----------------------------0-----------------|
   how they gonna stop you now   how they gonna stop you now

E]-3-3--------------------------------------3-3---------------|
B]-3-3--------------------------------------3-3---------------|
G]-0-0--------------------------------------0-0-0-------------|
D]-0-0--------------------------------------0-0--3p0----------|
A]-2-2--------------------------------------2-2-----3-1-------|
E]-3-3--------------------------------------3-3--------1-3----|
  "So you learn to live or you learn to lie"

e]------------------------------------------3-3---------------|
B]------------------------------------------3-3---------------|
G]------------------------------------------0-0-0-------------|
D]------------------------------------------0-0--3p0----------|
A]------------------------------------------2-2-----3-1---3---|
E]------------------------------------------3-3---------1-----|
   "Just dont sit and watch the world go by"                "TV fear sells
e]-------------------------------------------3-0----0-3-------3-2---|
B]-------------------------------------------3-2----2-3-------3-3---|
G]--------5/6-------5----3----5--------------0-2----2-0-------0-2---|
D]-------------------------------------------0-2----2-0-------0-0---|
A]--------3/4-------3----1----3--5p3h5-------2-0----0-2-------2-----|
E]-------------------------------------------3--------3-------3-----|
"Brand new cars my love lives with my guitar"     "easy to feel that free"

e]-------------2-0-----------0-3---------------3-2------------------|
B]-------------3-2-----------2-3---------------3-3------------------|
G]-5b-5--------2-2-----------2-0---------------0-2------------------|
D]-----5bp3----0-2-----------2-0---------------0-0------------------|
A]---------1---0-0-----------0-2---------------2--------------------|
E]-----------------------------3---------------3--------------------|
            "when you know what you want to be"

e]----0-0------2-2----------0------2-----------0-0---------2-2------|
B]----0-0------3-3----------2------3-----------0-0---------3-3------|
G]----1-1------2-2----------2------2-----------1-1---------2-2------|
D]----2-2------0-0----------2------0-----------2-2---------0-0------|
A]----2-2-------------------0------------------2-2------------------|
E]----0-0--------------------------------------0-0------------------|
   "Stand up your time has come back around, Stand up theres nothing

e]---0-------2---------0-0----------2-2------0---2------------------------|
B]---2-------3---------0-0----------3-3------2---3------------------------|
G]---2-------2---------1-1----------2-2------2---2------------------------|
D]---2-------0---------2-2----------0-0------2---0------------------------|
A]---0-----------------2-2-------------------0----------------------------|
E]---------------------0-0------------------------------------------------|   holding 
down. Walk on with your feet off the ground

  [on piano]
e]--2--------------0--------0----2----------------0-------0-----------------|
B]--3--------------2--------0----3----------------2-------0-----------------|
G]--2--------------2--------1----2----------------2-------1-----------------|
D]--0--------------2--------2----0----------------2-------2-----------------|
A]-----------------0--------2---------------------0-------2-----------------|
E]--------------------------0-----------------------------0-----------------|
   how they gonna stop you now   how they gonna stop you now

e]--2--------------0--------0----2----------------0-------0-----------------|
B]--3--------------2--------0----3----------------2-------0-----------------|
G]--2--------------2--------1----2----------------2-------1-----------------|
D]--0--------------2--------2----0----------------2-------2-----------------|
A]-----------------0--------2---------------------0-------2-----------------|
E]--------------------------0-----------------------------0-----------------|
   how they gonna stop you now   never they gonna stop you n0w
Tap to rate this tab
# A B C D E F G H I J K L M N O P Q R S T U V W X Y Z