Song name
# A B C D E F G H I J K L M N O P Q R S T U V W X Y Z

Jet - Shes A Genius tab

First tab, been playing for a year. Don't judge me.

She's a genius : solo

Tabbed by René

e|-------------------------------------------------------------------------|
b|---------------------------------------------------------------------16b-|
g|------------------------------------------------------------14b-12-------|
d|--20/21--21--21--21-21--21-21--21p19p17-19--21p19p17-19-17---------------|
a|-------------------------------------------------------------------------|
e|-------------------------------------------------------------------------|

|---------17b--15--17b-15-17b-15-----------------------------------------19-|
|--------------------------------17-15-17--15-------------------------------|
|-16-14-16--------------------------------------16-14b-12-14b--14-12-14-----|
|---------------------------------------------------------------------------|
|---------------------------------------------------------------------------|
|---------------------------------------------------------------------------|
Tap to rate this tab
# A B C D E F G H I J K L M N O P Q R S T U V W X Y Z