Song name
# A B C D E F G H I J K L M N O P Q R S T U V W X Y Z

Jet - Goodbye Hollywood tab

Jet
Goodbye Hollywood
Shaka Rock 2009
tabbed by Stoneman



as there was no other tab for this song,
so i decided to make my own version.. 
i admit its not the best song on the album but it still goes alright..



[*Intro / Verse*]


 Guitar 1

e-----7--7--7--------------8-8---8--7--|
B-----8--8--8-----------8--8-8---8--8--|                 
G--7--7--7--7---7---7h9----9-9---9--7--|
D--------------------------------------|              
A--------------------------------------|                 
E--------------------------------------|     



e-----7--7--7--------------8-8--10--10--8--7--|
B-----8--8--8-----------8--8-8--8---8---8--8--|                 
G--7--7--7--7---7---7h9----9-9--9---9---9--7--|
D---------------------------------------------|              
A---------------------------------------------|                 
E---------------------------------------------|     




[*Verse*] 



 Guitar 2

e------------------------8---8----8----8--|
B------12--12--12---12---8---8----8----8--|                 
G------12--12--12---12---9---9----9----9--|
D------12--12--12---12---10--10--10---10--|              
A--10--10--10--10---10---10--10--10---10--|                 
E------------------------8----8---8----8--|     


 
e---------------------8---------------|
B--12--12--12---12----8---------------|                 
G--12--12--12---12----9---9---9-------|
D--12--12--12---12---10---10--10--9---|              
A--10--10--10---10---10---10--10--10--|                 
E---------------------8---8---8---8---| 



[*Pre Chorus*]


 
 Guitar 1

e----------------------x------------------|
B--5--5----5/7~--------x-----5--5---5/7---|                 
G--5--5----5/7~--------x-----5--5---5/7---|
D--5--5----5/7~--------x-----5--5---5/7---|              
A--3--3----3/5~--------------3--3---3/5---|                 
E-----------------------------------------| 
 "i never needed anyone..."



(continued)
e------------------7-7-7-7-7-7-7-7-7-7-7-7-7-7-7--|
B------8-----8-----8-8-8-8-8-8-8-8-8-8-8-8-8-8-8--|                 
G--------7----7----7-7-7-7-7-7-7-7-7-7-7-7-7-7-7--|
D----0-----0----0--0-0-0-0-0-0-0-0-0-0-0-0-0-0-0--|              
A-------------------------------------------------|                 
E-------------------------------------------------|




Guitar 2

e--12--12----------------------12--12------------------|
B--13--13---7--------7---------13--13---7-----7--------|                 
G--12--12---7----------7-------12--12---7-------7------|
D-----------7------------7--------------7---------7--5-|              
A-----------5---------------------------5--------------|                 
E------------------------------------------------------|
 "i never needed anyone.."




e--------------------------------------------------|
B--------------------------12-12-12-12-12-12-12-12-|                 
G--12-12-12-12-12-12-12-12-12-12-12-12-12-12-12-12-|
D--12-12-12-12-12-12-12-12-12-12-12-12-12-12-12-12-|              
A--10-10-10-10-10-10-10-10-10-10-10-10-10-10-10-10-|                 
E--------------------------------------------------|





[*Chorus]

"so goodbye hollywood"

(no guitar during 1st chorus)




[*Post Chorus*]


 Guitar 1 & 2 - (its the same deal as the 1st verse just played up higher)

e------12--12--12-------------13-13--13-12--|
B------13--13--13---------13--13-13--13-13--|                 
G--12--12--12--12---12h14-----14-14--14-12--|
D-------------------------------------------|              
A-------------------------------------------|                 
E-------------------------------------------|  
"woooooo hoooo hooooooo"


e------12--12--12-------------13-13--15-15--13-12--|
B------13--13--13---------13--13-13--13-13--13-13--|                 
G--12--12--12--12---12h14-----14-14--14-14--14-12--|
D--------------------------------------------------|              
A--------------------------------------------------|                 
E--------------------------------------------------| 





[*Verse*]



 Guitar 1

e------12--12--12-------------13-13--13-12--|
B------13--13--13---------13--13-13--13-13--|                 
G--12--12--12--12---12h14-----14-14--14-12--|
D-------------------------------------------|              
A-------------------------------------------|                 
E-------------------------------------------|  



e------12--12--12-------------13-13--15-15--13-12--|
B------13--13--13---------13--13-13--13-13--13-13--|                 
G--12--12--12--12---12h14-----14-14--14-14--14-12--|
D--------------------------------------------------|              
A--------------------------------------------------|                 
E--------------------------------------------------| 




 Guitar 2

e--12~----13~----12~----13~----|
B--13~----13~----13~----13~----|                 
G--12~----12~----12~----12~----|
D------------------------------|              
A------------------------------|                 
E------------------------------| 




[*Pre Chorus*]




[*chorus*]


 

 Guitar 1

e-----------------------------------------------------|
B--------------------------12-12-12-12-12-12-12-12----|                 
G---------~----------------12-12-12-12-12-12-12-12----|
D--------------------------12-12-12-12-12-12-12-12----|              
A--------------------------10-10-10-10-10-10-10-10----|                 
E-----------------------------------------------------| 
"fit me like you should..."




e--8--8--8--8--8--8--8--8--8---------------------------|
B--8--8--8--8--8--8--8--8--8---12-12-12-12-12-12-12-12-|                 
G--9--9--9--9--9--9--9--9--9---12-12-12-12-12-12-12-12-|
D--10-10-10-10-10-10-10-10-10--12-12-12-12-12-12-12-12-|              
A--10-10-10-10-10-10-10-10-10--10-10-10-10-10-10-10-10-|                 
E--8--8--8--8--8--8--8--8--8---------------------------| 
"now i've found a place..





e---------------------------------------------------|
B--10-10-10-10-10-10-10-10-10-10-10-10-10-10-10-10--|                 
G--10-10-10-10-10-10-10-10-10-10-10-10-10-10-10-10--|
D--10-10-10-10-10-10-10-10-10-10-10-10-10-10-10-10--|              
A---8--8--8--8--8--8--8--8--8--8--8--8--8--8--8--8--|                 
E---------------------------------------------------| 
"



e--8--8--8--8--8--8--8--8--8----------------------------|
B--8--8--8--8--8--8--8--8--8---12-12-12-12-12-12-12-12--|                 
G--9--9--9--9--9--9--9--9--9---12-12-12-12-12-12-12-12--|
D--10-10-10-10-10-10-10-10-10--12-12-12-12-12-12-12-12--|              
A--10-10-10-10-10-10-10-10-10--10-10-10-10-10-10-10-10--|                 
E--8--8--8--8--8--8--8--8--8----------------------------| 
" so goodbye hollywood.."




e--8--8--8--8--8--8--8--8-------------------------------|
B--9--9--9--9--9--9--9--9---10-10-10-10-10-10-10-10-10--|                 
G--10-10-10-10-10-10-10-10--10-10-10-10-10-10-10-10-10--|
D--10-10-10-10-10-10-10-10--10-10-10-10-10-10-10-10-10--|              
A--10-10-10-10-10-10-10-10---8--8--8--8--8--8--8--8--8--|                 
E---8--8--8--8--8--8--8--8------------------------------| 




e--8--8--8--8--8--8--8--8--8----------------------------|
B--8--8--8--8--8--8--8--8--8---12-12-12-12-12-12-12-12--|                 
G--9--9--9--9--9--9--9--9--9---12-12-12-12-12-12-12-12--|
D--10-10-10-10-10-10-10-10-10--12-12-12-12-12-12-12-12--|              
A--10-10-10-10-10-10-10-10-10--10-10-10-10-10-10-10-10--|                 
E--8--8--8--8--8--8--8--8--8----------------------------| 



e------------------------------|
B--10-10-10-10-10-10-10-10-10--|                 
G--10-10-10-10-10-10-10-10-10--|
D--10-10-10-10-10-10-10-10-10--|              
A---8--8--8--8--8--8--8--8--8--|                 
E------------------------------|


 Guitar 2

e----------------------------------7--7----7-------7----|
B----------------------------------8--8------8-------8--|                 
G---------~------------------------7--7--------7--------|
D-------------------------------------------------------|              
A-------------------------------------------------------|                 
E-------------------------------------------------------| 
"it just dont fit me like you should.."




e--8-8-8-8-8-8-8-8--7-7-7-7-7-7-7-7--|
B--8-8-8-8-8-8-8-8--8-8-8-8-8-8-8-8--|                 
G--9-9-9-9-9-9-9-9--7-7-7-7-7-7-7-7--|
D------------------------------------|              
A------------------------------------|                 
E------------------------------------| 
"now iv'e found a place..."




e--------------8--------------------8---------|
B---------8------8-----8--------8-----8----8--|                 
G-------9---9-------9---------9---9------9----|
D----10--------------------10-----------------|              
A---------------------------------------------|                 
E---------------------------------------------| 



e--8-8-8-8-8-8-8-8--7-7-7-7-7-7-7-7--|
B--8-8-8-8-8-8-8-8--8-8-8-8-8-8-8-8--|                 
G--9-9-9-9-9-9-9-9--7-7-7-7-7-7-7-7--|
D------------------------------------|              
A------------------------------------|                 
E------------------------------------|
"goodbye hollywood..."



e--12-12-12-12-12-12-12-12--5-5-5-5-5-5-5-5--|
B--13-13-13-13-13-13-13-13--6-6-6-6-6-6-6-6--|                 
G--12-12-12-12-12-12-12-12--5-5-5-5-5-5-5-5--|
D--------------------------------------------|              
A--------------------------------------------|                 
E--------------------------------------------|



e--8-8-8-8-8-8-8-8--7-7-7-7-7-7-7-7----------8---------|
B--8-8-8-8-8-8-8-8--8-8-8-8-8-8-8-8------8-----8-----8-|                 
G--9-9-9-9-9-9-9-9--7-7-7-7-7-7-7-7----9---9------9----|
D-----------------------------------10-----------------|              
A------------------------------------------------------|                 
E------------------------------------------------------| 
"and now i've found a place..."





[*1st Verse*]





[*Bridge*]



 Guitar 1 - (play it over again for 4 bars)

e-----------------------------------------------|
B--------3------------3--------0-----------3----|                 
G-----------5-------5------------5-------5------|
D-----4-----------4--------4-----------4--------|              
A--5------------5--------5-----------5-----etc--|                 
E-----------------------------------------------|
"ohhhhhhhhhPaulMcCarnteyStyleohhhhhhhhhhh



 Guitar 2

e--------------------------------------------|
B-12b13r12~~b14--------10/12--10-------------|                 
G-12b13r12~~b14--------10/12--10--10--10/12--|
D---------------------------------10--10/12--|              
A--------------------------------------------|                 
E--------------------------------------------|


(Continued)
e----------------------------------------------|
B-----------------10h12--------------10-10-10--|
G-----------------10h12--12----------10-10-10--|                 
D---10h12--12-12---------12----12-12-----------|              
A----------------------------------------------|                 
E----------------------------------------------|



(continued)
e-----------------------------------------------------|
B-------10-10-10------10-10-10------10/12-10----------|                 
G-------10-10-10------10-10-10------10/12-10----------|
D--12-12---------12-12-----------------------12-10/12-|              
A-----------------------------------------------------|                 
E-----------------------------------------------------|



(continued)
e-------------------------------------------------------|
B-------10-10-10-------10-10-10------10-10--12-10-12b10-|                 
G-------10-10-10-------10-10-10------10-10--12-10-12b10-|
D-12-12----------12-12---------12-12--------------------|              
A-------------------------------------------------------|                 
E-------------------------------------------------------|




[*Break*]



 Guitar 1 - Palm Muted

e-------------------------------------------------------|
B-------------------------------------------------------|                 
G------------------------------12-12-12-12-12-12-12-12--|
D--10-10-10-10-10-10-10-10-10--12-12-12-12-12-12-12-12--|              
A--10-10-10-10-10-10-10-10-10--10-10-10-10-10-10-10-10--|                 
E--8--8--8--8--8--8--8--8--8----------------------------| 
"goodbye hollywood.."



e-----------------------------------------------------|                 
B-----------------------------------------------------|
G--10-10-10-10-10-10-10-10----------------------------|              
D--10-10-10-10-10-10-10-10---10-10-10-10-10-10-10-10--|                 
A---8--8--8--8--8--8--8--8---10-10-10-10-10-10-10-10--| 
E-----------------------------8--8--8--8--8--8--8--8--|



e----------------------------------------------------|
B----------------------------------------------------|                 
G----------------------------------------------------|
D--10-10-10-10-10-10-10-10--12-12-12-12-12-12-12-12--|              
A--10-10-10-10-10-10-10-10--12-12-12-12-12-12-12-12--|                 
E---8--8--8--8--8--8--8--8--10-10-10-10-10-10-10-10--|



e------------------------------------------------------|                 
B------------------------------------------------------|
G--10-10-10-10-10-10-10-10-10-10-10-10-10-10-10-10-10--|              
D--10-10-10-10-10-10-10-10-10-10-10-10-10-10-10-10-10--|                 
A--8--8--8--8--8--8--8--8--8--8--8--8--8--8--8--8--8---| 
E------------------------------------------------------|




[*Chorus*]




[*Ending*]



 Guitar 1 - (this is the little lead fill right at the end)

e----------------------------|                 
B----------------------------|
G--5/7--9-7-5---7--7/9--7-5--|              
D----------------------------|                 
A----------------------------| 
E----------------------------|
"Im coming ho-oh-ohome-oh-oh-ohome





 Guitar 2 - (just play these last 2 chords multipule times until the end)

e---------------------------8--8--8--8--8--8--8--8---|                 
B--10-10-10-10-10-10-10-10--8--8--8--8--8--8--8--8---|
G--10-10-10-10-10-10-10-10--9--9--9--9--9--9--9--9---|              
D--10-10-10-10-10-10-10-10--10-10-10-10-10-10-10-10--|                 
A--8--8--8--8--8--8--8--8---10-10-10-10-10-10-10-10--| 
E---------------------------8--8--8--8--8--8--8--8---|
"Im coming home..."





End On


e--8---|                 
B--8---|
G--9---|              
D--10--|                 
A--10--| 
E--8---|


 and

e--8---|                 
B--8---|
G--9---|              
D------|                 
A------| 
E------|

Tap to rate this tab
# A B C D E F G H I J K L M N O P Q R S T U V W X Y Z