Song name
# A B C D E F G H I J K L M N O P Q R S T U V W X Y Z

Jethro Tull - Aqualung tab

Help us improve GuitareTab! Take a short survey!
Intro:


e||-----------------|-----------------|-----------------|------------------|
B||-----------------|-----------------|-----------------|------------------|
G|4-----------------|-----------------|-----------------|------------------|
D|4-----------------|-----------------|-----------------|------------------|
A||-5-----3-4~--3---|-4-----4-4------|-6-6-6---6-------|-8-----8-8---6-8---|
E||---3-6-----------|-----------------|-----------------|------------------|

e||-----------------|-----------------|-----------------|
B||-----------------|-----------------|-----------------|
G|4-----------------|-----------------|-----------------|
D|4-----------------|-----------------|-----------------|
A||-6-8-9-----------|---6-6-6-6---9---|-9-7-----5-------|
E||---------9-------|-----------9-----|-----7-----------|

Sit-ting on a park bench - eye-ing lit-tle girls - with   bad in-tent
Snot is  runnig down his nose -greassy  fingers smearing - shabby clothes- Hey Aqualung
Drying in the cold sun - watching as the frilly - panties run - Hey Aqualung
Feeling like a dead duck - spitting out pieces of - his broken luck - Oh  Aqualung


Verse on Acoustic:

Em            D                         A
Sun streaking cold an old man wandring lonely,
Am              Em            D
taking time the only way he knows.
Em           D                          A
Legs hurting bad as he bends to pick a dog end .
   Am               Em                D
He goes down to the bog and warms his feet.

Em                D            A
Feeling alone the army's up the road,
Am             Em                D
salvation a la mode and a cup of tea.
Em          D                             A
Aqualung my friend, don't you  start away uneasy.
    Am           Em            D
You poor old sod see it's only me.

(faster and heavier)
Em                D                   Em
Do you still remember,Decembers foggy freeze
			     D
when the ice that clings onto your beard
		   Em
was screaming agony?
		 D			       Em]
And your ratling last breaths with deepseadiver sounds
	Am	      Em		        D]
and the flowers bloom like madness in the spring.


Solo:

e||---------1---h---3---/---5---------|------------------------------------|
B||-3---------------------------------|------------------------------------|
G|4-----------------------------------|------------------------------------|
D|4-----------------------------------|------------------------------------|
A||-----------------------------------|------------------------------------|
E||-----------------------------------|------------------------------------|

e||----------h-p----------------------|------------------------------------|
B||-6-------5-6-5---------------------|------------------------------------|
G|4---------------5-------------------|------------------------------------|
D|4-----------------5-----------------|------------------------------------|
A||-----------------------------------|------------------------------------|
E||-----------------------------------|------------------------------------|

e||-----------------------------------|------------------------------------|
B||-----------------------------------|------------------------------------|
G|4-----------h-----------------------|------------------------------------|
D|4---h-----3---5-/-7-----------------|------------------------------------|
A||-3---5-----------------------------|------------------------------------|
E||-----------------------------------|------------------------------------|

e||-----------------------------------|------------------------------------|
B||-----------------------------------|------------------------------------|
G|4-------------------------5.--------|-3----------------------------------|
D|4---------------------5-------------|------------------------------------|
A||-3-------3---5-/-7-----------------|------------------------------------|
E||-----------------------------------|------------------------------------|

e||-3---------------------------------|------------------------------------|
B||---------4-------------------------|------------------------------------|
G|4-----------------5-----------------|------------------------------------|
D|4-----------------------------------|------------------------------------|
A||-----------------------------------|------------------------------------|
E||-----------------------------------|------------------------------------|

e||-3---------------------------------|------------------------------------|
B||---------3-------------------------|------------------------------------|
G|4-----------------3-----------------|------------------------------------|
D|4-----------------------------------|------------------------------------|
A||-----------------------------------|------------------------------------|
E||-----------------------------------|------------------------------------|

e||-----------------------------------|------------------------------------|
B||-----------------------------------|------------------------------------|
G|4---------------------5---5---5-----|-5---------------5-------5---5------|
D|4---h-----3---5-/-7-----------------|---------7-----------7--------------|
A||-3---5-----------------------------|------------------------------------|
E||-----------------------------------|------------------------------------|

e||---------------------------------b-|------r-----------------------------|
B||--p----------------------6---(8)---|-(10)----8--------------------------|
G|4-7-5-----5-------5---7-------------|-----------------5-------7----------|
D|4-----7-------7---------------------|------------------------------------|
A||-----------------------------------|------------------------------------|
E||-----------------------------------|------------------------------------|

e||-----------------------------------|------------------------------------|
B||-----------------------------------|------------------------------------|
G|4-----------------3-------5---------|------------------------------------|
D|4-5---------------------------------|---------3---------------3----------|
A||-----------------------------------|-----------------5------------------|
E||-----------------------------------|------------------------------------|

e||-----------------------------------|------------------------------------|
B||------------------p----------------|---------------------------b--------|
G|4-----------------5-3-----3---------|---------------------3---5----------|
D|4---------3---5-------5-------------|-5----------------------------------|
A||-----5-----------------------------|------------------------------------|
E||-----------------------------------|------------------------------------|

e||-----------------------------------|------------------------------------|
B||-----------------------------------|------------------------------------|
G|4(7)---------------slowly release---|-(5)-----3--------------------------|
D|4-----------------------------------|-----------------5------------------|
A||-----------------------------------|------------------------------------|
E||-----------------------------------|------------------------------------|

e||-----------------------------------|--------------------------------------|
B||-----------------------------------|--------------------------------------|
G|4-----------------------------------|--------------------------------------|
D|4---------3-------------------------|-------------3---3-------3------------|
A||-------------5--3---1---1---------|-1---3-/-5-----------5-------5---------|
E||-----------------------------3-----|--------------------------------------|

e||-----------------------------------|------------------------------------|
B||-----------------------------------|--------------------------p---------|
G|4-3---3-3-3-------3-------5---/-----|-7-------------------5---5-3--------|
D|4-------------5-------5-------------|-----------------------------5------|
A||-----------------------------------|------------------------------------|
E||-----------------------------------|------------------------------------|

e||-----------------------------------|------------------------------------|
B||-----------------------------------|---p--------------------------------|
G|4-3-----------------h-----3---------|-5---3---------------------h--------|
D|4-----------------3---5-------------|---------3---------------3---5------|
A||---------5-------------------------|-----------------5------------------|
E||-----------------------------------|------------------------------------|

e||-----------------------------------|------------------------------------|
B||-------------------------6---------|-----------------8------------------|
G|4-3---5-/-7-------------------------|-5-----------------------7----------|
D|4-----------------------------------|------------------------------------|
A||-----------------------------------|------------------------------------|
E||-----------------------------------|------------------------------------|

e||-----------------------------------|----------------------h--p----------|
B||-----------------------------------|---h-----6-------6---6-8-6----------|
G|4---------------------5---5---5-----|-5---7-------7---------------5------|
D|4---h-----3---5-/-7-----------------|------------------------------------|
A||-3---5-----------------------------|------------------------------------|
E||-----------------------------------|------------------------------------|

e||-----------------------------------|--p---------------------------------|
B||------------------p----------------|-8-6-----------------------h--------|
G|4-7-------5-------7-5-----5---------|-----5---7-------5-------5---7------|
D|4---------------------7-------7-----|---------------------7--------------|
A||-----------------------------------|------------------------------------|
E||-----------------------------------|------------------------------------|

e||-----------------------------------|------------------------------------|
B||---------------------------b---r---|--------------------------------r---|
G|4-----------------3-------5--(7)----|-5-----------------------3----7-(5)-|
D|4-5---------------------------------|------------------------------------|
A||-----------------------------------|------------------------------------|
E||-----------------------------------|------------------------------------|

e||-----------------------------------|------------------------------------|
B||-----------------------------------|------------------------------------|
G|4-5---------------------------------|------------------------------------|
D|4---------3---3---5-------3---------|-----------------------------5------|
A||-----------------------------------|-5-----------------------5----------|
E||-----------------------------------|------------------------------------|

e||-----------------------------------|------------------------------------|
B||-----------------------------------|-----------------------------6------|
G|4-3---------------------------------|-5---5-/-7--------------------------|
D|4---------5-------------------------|------------------------------------|
A||-----------------------------------|------------------------------------|
E||-----------------------------------|------------------------------------|

e||-----------------------------------|------------------------------------|
B||-8---------------------------------|-6-------8-------------------6------|
G|4-----------------7-----------------|------------------------------------|
D|4-----------------------------------|------------------------------------|
A||-----------------------------------|------------------------------------|
E||-----------------------------------|------------------------------------|

e||-10--------------------------------|---------8-----h--------------------|
B||-----------------8-----------------|-------------6---8------------------|
G|4-----------------------------------|------------------------------------|
D|4-----------------------------------|------------------------------------|
A||-----------------------------------|------------------------------------|
E||-----------------------------------|------------------------------------|

              p       p
e||---------8-6-----8-6-----6---------|--------------------------------------|
B||-----8-------8-------8-------------|-8-------6----------------------------|
G|4-----------------------------------|-------------7--5---3---3-------------|
D|4-----------------------------------|-----------------------------5--------|
A||-----------------------------------|--------------------------------------|
E||-----------------------------------|--------------------------------------|

e||-----------------------------------|------------------------------------|
B||--p-------p------------------------|---h--------------------------------|
G|4-5-3-----5-3-----3---------h-------|-3---5------------------------------|
D|4-----5-------5-----------3---5-----|------------------------------------|
A||---------------------5-------------|---------5--------------------------|
E||-----------------------------------|------------------------------------|

e||-----------------------------------|------------------------------------|
B||-----------------------------------|---h-------------6-------8---/------|
G|4---------------------5---5---5-----|-5---7------------------------------|
D|4---h-----3---5-/-7-----------------|------------------------------------|
A||-3---5-----------------------------|------------------------------------|
E||-----------------------------------|------------------------------------|

e||-----------h----13-----h-13-----h--|-13---------------------------------|
B||-10----1313-15-----1313-15--1313-15|-----15-----------------------------|
G|4-----------------------------------|------------------------------------|
D|4-----------------------------------|------------------------------------|
A||-----------------------------------|------------------------------------|
E||-----------------------------------|------------------------------------|
Related for Aqualung tab