Song name
# A B C D E F G H I J K L M N O P Q R S T U V W X Y Z

Jimmy Eat World - Get It Faster tab

INTRO/VERSE [Guitar 1] (palm muted)
|-----------------------------------------------------------------|
|-----------------------------------------------------------------|
|-------------------------------------------------5-5-5-5-5-5-5-5-|
|-5-5-5-5-5-5-5-5-8-8-8-8-8-8-8-8-3-3-3-3-3-3-3-3-5-5-5-5-5-5-5-5-|
|-5-5-5-5-5-5-5-5-8-8-8-8-8-8-8-8-3-3-3-3-3-3-3-3-3-3-3-3-3-3-3-3-|
|-3-3-3-3-3-3-3-3-6-6-6-6-6-6-6-6-1-1-1-1-1-1-1-1-----------------|

CHORUS [Guitar 1]
|-------------------------------------------------------------|
|-------------------------------------------------------------|
|-------------------------------------------------5-5-5-5-----|
|-5-5-5-5-5-5-5-5-8-8-8-8-8-8-8-8-3-3-3-3-3-3-3-3-5-5-5-5-----|
|-5-5-5-5-5-5-5-5-8-8-8-8-8-8-8-8-3-3-3-3-3-3-3-3-3-3-3-3-8-3-|
|-3-3-3-3-3-3-3-3-6-6-6-6-6-6-6-6-1-1-1-1-1-1-1-1---------6-1-|

[Guitar 2](comes in after Guitar 1 plays a few times)
|-------------------------------------------------------------|
|-------------------------------------------------------------|
|-------------------------------------------------5-5-5-5-7-3-|
|-5-5-5-5-5-5-5-5-8-8-8-8-8-8-8-8-3-3-3-3-3-3-3-3-x-x-x-x-x-x-|
|-x-x-x-x-x-x-x-x-x-x-x-x-x-x-x-x-x-x-x-x-x-x-x-x-3-3-3-3-5-1-|
|-3-3-3-3-3-3-3-3-6-6-6-6-6-6-6-6-1-1-1-1-1-1-1-1-------------|



INTERLUDE
something like this
[shows Guitar 1 + 2]
|-----0---0-0---0--0-0----0--0--0--0-0--0-0-0-0-0-|-0*---|
|-----3---5-5---5--8-8---12-10-12-10-8--8-7-8-7-5-|-5*---|
|-------------------------------------------------|------|
|-5-5--5-5-5---8-8--8-8-8---3-3--3-3-x-3---5-5-x--|----3-|
|-5-5--5-5-5---8-8--8-8-8---3-3--3-3-x-3---5-5-x--|----3-|
|-3-3--3-3-3---6-6--6-6-6---1-1--1-1-x-1---3-3-x--|----1-|
*hold with distortion

Structure + Lyrics

INTRO/VERSE 1
I dont care what you do
Im getting help 
no nothing every shames me
dont want a thing from you
Im going out
I dont care if your angry

CHORUS 1
oh ho, oh ho ah ho
Im getting help, no nothing ever shames me
oh ho, oh ho ah ho
Im going out, I dont care if your angry

INTRO/VERSE 2
I should have thought things through
Im holding out, not giving an answer
I wanna do right by you
Im finding out, that cheating gets it faster

CHORUS 2
oh ho, oh ho ah ho
Im holding out, not giving an answer
oh ho, oh ho ah ho
Im finding out, cheating gets it faster
oh ho, oh ho ah ho
Im holding out, not giving an answer
oh ho, oh ho ah ho
Im finding out, cheating gets it faster

INTERLUDE

INTRO/VERSE 2

CHORUS 2
Tap to rate this tab
 
# A B C D E F G H I J K L M N O P Q R S T U V W X Y Z