Song name
# A B C D E F G H I J K L M N O P Q R S T U V W X Y Z

Jimmy Eat World - The Middle tab

Jimmy Eat World - The Middle

Standard Tuning

Bass Intro:

e------------------|
B------------------|
G------------------|
D------------------|
A--9-5-9-7-4-5-4-5-|
E------------------|

Verse:

   D5  A5 G5 D5 
e--------------|
B--------------|
G---7--------7-|
D---7--7--5--7-| Palm Muted
A---5--7--5--5-|
E------5--3----|


D5			      A5
hey, don't write yourself off yet 
			  G5                         D5
it's only in your head you feel left out or looked down on 

Chorus:- 

 F#5 D5 F#5 E5 C#5 D5 C#5 D5
e--------------------------|
B--------------------------|
G-11--7--11--9--6--7--6--7-|
D-11--7--11--9--6--7--6--7-|
A--9--5---9--7--4--5--4--5-|
E--------------------------|


F#5	D5
it just takes some time 
	     F#5		  E5 C#5 
little girl, you're in the middle of the ride 
C#5			   D5	
everything everything will be just fine 
everything everything will be all right 

  
Solo:
e|---------------------------------------------------------------------------|
B|---------------------------------------------------------------------------|
G|---------------------------------------------------------------------------|
D|--11h12p11-9h11p9-7h9p7-4h5p4p0-2-0----------------------------------------|
A|------------------------------------4-5-4-5/7-5-4-5-4-5-4h5p4-0------------|
E|----------------------------------------------------------------0----------|

e|---------------------------------------------------------------------------|
B|---------------------------------------------------------------------------|
G|---------------------------------------------------------------------------|
D|--11h12p11-9h11p9-7h9p7-4h5p4p0-2-0----------------------------------------|
A|------------------------------------4-5-4-55557777999910-10-10/12-10-9-10--|
E|---------------------------------------------------------------------------|

e|---------------------------------------------------------------------------|
B|---------------------------------------------------------------------------|
G|---------------------------------------------------------------19-18-16-14-|
D|-------------------------12-0-12-12/14-0-14/16-0-16-16/17-16-17------------|
A|-9-10-10/12-10-9-9h10p9----------------------------------------------------|
E|-----------------------12--------------------------------------------------|

		 very fast picking
e|---------------------------------------------------------------------------|
B|---------------------------------------------------------------------------|
G|--12-11-9-7-6-4------------------------------------------------------------|
D|---------------------------------------------------------------------------|
A|---------------------------------------------------------------------------|
E|---------------------------------------------------------------------------|


Lyrics:

Verse 1 -
hey, don't write yourself off yet 
it's only in your head you feel left out or looked down on 
just try your best 
try everything you can 
and don't you worry what they tell themselves when you're away 

Verse 2 -
hey, you know they're all the same 
you know you're doing better on your own so don't buy in 
live right now 
just be yourself 
it doesn't matter if that's good enough for someone else 

Chorus -
it just takes some time 
little girl, you're in the middle of the ride 
everything everything will be just fine 
everything everything will be all right 

Verse 3 -
do your best 
do everything you can 
don't you worry what thier bitter hearts are going to say 

Structure:

Intro x1
Verse 1
Verse 2
Chorus
Verse3
Chorus
Solo
Verse 1
Chorus 
End on D5
Tap to rate this tab
# A B C D E F G H I J K L M N O P Q R S T U V W X Y Z