Guitaretab - guitar tabs
Song name
# A B C D E F G H I J K L M N O P Q R S T U V W X Y Z

Jimmy Eat World - The Middle tab

tuning is as follows:
(DADGBE)
low2high

Intro:
Gtr. 1
------------------------------------------------------------------------------e
------------------------------------------------------------------------------B
------------------------------------------------------------------------------G
--4-4-0-0-0-0-0-0-0-0-0-4-4-4-4-4-2-2----------------------------0-0-0-0-0-0-0D
--------------------------------------4-4-4-4-4-4-4-4-4-4-4-4-4-4-------------A
------------------------------------------------------------------------------D


------------------------------------------------------------------------------e
------------------------------------------------------------------------------B
------------------------------------------------------------------------------G
------------------0-0-0-0-0-0-0-0---------------------------------------------D
4-4-4-4-4-4-4-4-4-------------------------------------------------------------A
------------------------------------------------------------------------------D

Intro:
Gtr. 2
------------------------------------------------------------------------------e
------------------------------------------------------------------------------B
------------------------------------------------------------------------------G
------------------------------------------------------------------------------D
------------------------------------------------------------------------------A
-0-0-0-0-0-0-0-0-0-0-0-0-0-0-0-0-7-7-7-7-7-7-7-7-7-7-7-7-7-7-7-7-5-5-5-5-5-5-5D

------------------------------------------------------------------------------e
------------------------------------------------------------------------------B
------------------------------------------------------------------------------G
------------------------------------------------------------------------------D
------------------------------------------------------------------------------A
-5-5-5-5-5-5-5-5-5-0-0-0-0-0-0-0-0-0-0-0-0-0-0-0-0----------------------------D

Verse:
For Gtr. 2 play the intro
For gtr. 1 play this around the time he says "just do your best, try everything you can":

-------------------------------------------------------------------------------
-------------------------------------------------------------------------------
7-7-7-7-7-7-7-7-7-7-7-7-6-6-6-6-7-7-7-7-7-7-7-7-7-7-7-7-7-7-7-7-4-4-2-2-2-2-2-2
0-0-0-0-0-0-0-0-0-0-0-0-0-0-0-0-0-0-0-0-0-0-0-0-0-0-0-0-0-0-0-0-0-0-0-0-0-0-0-0
-------------------------------------------------------------------------------
-------------------------------------------------------------------------------

-------------------------------------------------------------------------------
-------------------------------------------------------------------------------
2-2-2-2-2-6-6-6-6-7-7-7-7-7-7-7-7-7-7-7-7-7-7-7-7------------------------------
0-0-0-0-0-0-0-0-0-0-0-0-0-0-0-0-0-0-0-0-0-0-0-0-0------------------------------
--------------------------------------------------------------------------------------------------------------------------------------------------------------

Chorus:
               D                                  A                  
it just takes some time  little  girl  you're in the middle of the ride   
                                 G5                                       A
Everything everything  will  be just fine  Everything everything will be all 

right all right

Gtr. solo:
Gtr. 1
-------------------------------------------------------------------------------
--2-3-2-0--------------------------------------------------------------------------------2-4-2-0--------------------------------------------------------------------------------4-5-4-0-----------4-0-0-0-----0-------------------------------------------------------2--4--2--0--------4-4-------4---/7-----5-4-5-4-5-4----
----------------------------------------------------------------------------0-0

Gtr.2
----------------------------------------------------------------------------------------------------------------------------------------------------------------------------------------------------------------------------------------------------------------------------------------------------------------------------
7-7-7-7-7-7-7-7-7-7-7-7-7-0-0-0-0-0-0-0-0-0-0-0-0-0----------------------------
7-7-7-7-7-7-7-7-7-7-7-7-7-0-0-0-0-0-0-0-0-0-0-0-0-0----------------------------


then just listen to the song and pick up where verse does in the song.
Then just play the Chorus after that.
 
There is more to the solo but i'm pretty laxidasical today so i didn't put it all in there. But just go crazy and improvise.

This is my first tab, but i know for a fact that the chords are all correct. but if you find any problems w/ my tab then just fix 'em.

If ya have a song you can't find the tabs for just e-mail me at greenday48845@yahoo.com and i'll try to get them on the site as fast as i can.

Have fun and go crazy!
[ Tab from: http://www.guitaretab.com/j/jimmy-eat-world/22585.html ]
Related for The Middle tab
Advertisement will be closed in 10 seconds