Song name
# A B C D E F G H I J K L M N O P Q R S T U V W X Y Z

Jimmy Eat World - Appreciation tab

Intro/Verse
Guitar 1
e|---------------------------|
B|-----------------------333-|
G|-7-777---777---7-777---222-|
D|-7-777---777---7-777---000-|
A|-5-555---555---5-555---xxx-|
E|-7-777---555-----------333-|

Verse
Guitar 2
e|---------------------------|
B|-7-777---555---7-777---888-|
G|-7-777---777---7-777---777-|
D|-7-777---777---7-777---777-|
A|---------------------------|
E|---------------------------|

Last line of verse
Guitar 1
e|----------------------------|
B|------------------------333-|
G|-7-777---777---777777---222-|
D|-7-777---777---777777---000-|
A|-5-555---555---555555---000-|
E|-7-777---555------------333-|

Guitar 2
e|----------------------------|
B|-7-777---555---777777---888-|
G|-7-777---777---777777---777-|
D|-7-777---777---777777---777-|
A|----------------------------|
E|----------------------------|



Chorus
Guitar 1
e|-2------0------3------0------2------0-----------0------0-|
B|---3------3------3------3------3------3-------3------3---|
G|-----2------2------2------2------2------2---0------0-----|
D|---------------------------------------------------------|
A|---------------------------------------------------------|
E|---------------------------------------------------------|

Guitar 2
e|----------------------------------------------------|
B|----------------------------------------------------|
G|-44444--77777---------------44444-77777-------------|
D|-44444--77777--55555--22222-44444-77777-55555-55555-|
A|-22222--55555--55555--22222-22222-55555-55555-55555-|
E|---------------33333--00000-------------33333-33333-|

It sounds like theres a 3rd guitar playing this in Drop D
e|--------------------------------------------------|
B|--------------------------------------------------|
G|-44444-77777--------------44444-77777-------------|
D|-44444-77777-55555-22222--44444-77777-55555-55555-|
A|-22222-55555-55555-22222--22222-55555-55555-55555-|
D|-------00000-55555-22222--------00000-55555-55555-|


Between Chorus and Verse 2
Guitar 1
e|---------------------------|
B|-----------------------333-|
G|-7-777---777---7-777---222-|
D|-7-777---777---7-777---000-|
A|-5-555---555---5-555---xxx-|
E|-7-777---555-----------333-|

Guitar 2
e|----------|
B|----------|
G|-77777777-|
D|-77777777-|
A|----------|
E|----------|


Repeat Verse and Chorus

Bridge (same as Chorus, but Guitar 2 and 3 switch to acoustic, and sounds like all 
guitars add some delay etc)


Solo
Guitar 2
e|-------------------------|---------|
B|-------------------------|---------|
G|-44444-77777-------------|---------|
D|-44444-77777-55555-55555-|-555-555-|
A|-22222-55555-55555-55555-|-555-555-|
E|-------------33333-33333-|-333-333-|

Guitar 1
e|--------------------------------------------------------------------------------------|
B|----------------------------------------0---------------------------------------------|
G|----------------------------------------4b--------------------------------------------|
D|-7--------------------------------------------7---------------------------------------|
A|---9-7h99-7h99--7\5-2\0---2/4/5/7\4--22---------9-7h99-7h99--7\5-2\0---2/4/5/7\4--222-|
E|--------------------------------------------------------------------------------------|

Guitar 3
e|-------------------------|---------|
B|-------------------------|---------|
G|-44444-77777-------------|---------|
D|-44444-77777-55555-55555-|-555-555-|
A|-22222-55555-55555-55555-|-555-555-|
D|-------00000-55555-55555-|-555-555-|


Repeat Chorus
Guitar 2 switches to this during "Strange we've come to find ourselves)
e|-----------------------------------------------------------------|
B|-----------------------------------------------------------------|
G|-----------------------------------------------------------------|
D|-----------------------------------------------------------------|
A|-22/44/5-----55\4----------------22/44/5-----55\4----------------|
E|----------55--------333333-00000----------55-------333333-333333-|

A 4th guitar plays this for last few seconds
e|-17t-|
B|-----|
G|-----|
D|-----|
A|-----|
E|-----|
Tap to rate this tab
# A B C D E F G H I J K L M N O P Q R S T U V W X Y Z