Guitaretab - guitar tabs
Song name
# A B C D E F G H I J K L M N O P Q R S T U V W X Y Z

Jj Cale - Like You Used To tab

F#m  A  E  F#m (3x)   C#  F#m

F#m  A  E  F#m (3x)   C#  F#m




F#m /   A /    E /      F#m /        F#m /    A / E /         F#m /
Cry me a tune in the morning,        sing me the blues every night

F#m /   A /      E /        F#m /      C#  ///               F#m ///
Tell me that you really love me baby, and everything is alright

F#m /     A /  E /      F#m /        F#m /    A /    E /       F#m /
Let me know how you're feeling,      it don't even have to be true

F#m /  A /   E /  F#m /  C#  ///            F#m ///
Just love me for ever,   baby baby treat me like you used to


B                               F#m
Home, I've been away from home, I'm a travelling man
B                         C  C#
Welcome me back any time,       you are the only one who can


Tell me that you really love me, even if it ain't true
Just do anything, baby baby treat me like you used to

SOLO:  F#m  A  E  F#m (3x)   C#  F#m 

[ Tab from: http://www.guitaretab.com/j/jj-cale/115836.html ]
|----------------7--------------7-9-9-12-12-9-----------------------------------|
|-7-7-7-7--7-10----10-7----7-10-------------------------------------------------|
|-------------------------------------------------------------------------------|
|-------------------------------------------------------------------------------|
|-------------------------------------------------------------------------------|
|-------------------------------------------------------------------------------|

|-12-9-----------------------------9----9-9-7-7---------------------------------|
|------12---10-9-10--9----9-10-12----------------10-9---10-9-7-10-9-7----------|
|----------------------10-------------------------------------------------------|
|-------------------------------------------------------------------------------|
|-------------------------------------------------------------------------------|
|-------------------------------------------------------------------------------|



Home, I've been away from home, I'm a travelling man
Welcome me back any time, you are the only one who can
Tell me that you really love me, even if it ain't true
But do anything, baby baby treat me like you used to 
Related for Like You Used To tab