Guitaretab - guitar tabs
Song name
# A B C D E F G H I J K L M N O P Q R S T U V W X Y Z
Home / J / Jj72 / Snow tab

Jj72 - Snow tab

'Snow' - JJ72

-----------------
Intro and Verse 1
-----------------

   C             Cadd9 C            Fmaj7         Fadd9  Fmaj7
e|---------------------------------|---------0-------3---0-----------|
B|---------1-------3---1-----------|-------------------------1-------|
G|-------------------------0-------|-----2---------------------------|
D|-----2---------------------------|-3-------------------------------|
A|-3-------------------------------|---------------------------------|
E|---------------------------------|---------------------------------|
   1   +   2   +   3   +   4   +     1   +   2   +   3   +   4   +

(alternatively strum chords above)

People go dancing, crowded rooms,
My head is getting tired, darkness looms,
Children go cursing at their only cause.

------
Chorus
------

F             Dm   F                  Dm
Why won't it snow, like they said it would,
F                     Dm    F              Dm
What is it that they know, that I really should...

-------
Verse 2
-------

Take a look in the mirror, it don't glow,
My face is getting thinner, darkness shows,
Children go cursing at their only cause.
[ Tab from: http://www.guitaretab.com/j/jj72/27438.html ]
------
Chorus
------

------
Middle
------

e|---------------------------------|---------------------------------|
B|---------------------------------|---------------------------------|
G|-5-------5-------5---7---9-------|---------------------------------|
D|-5-------5-------5---7---9-------|-2-------2-------2---3---4-------|
A|-3-------3-------3---5---7-------|-2-------2-------2---3---4-------|
E|---------------------------------|-1-------1-------1---2---3-------|
   1   +   2   +   3   +   4   +     1   +   2   +   3   +   4   +

(repeat), then....

e|---------------------------------|---------------------------------|
B|---------------------------------|---------------------------------|
G|-5-------5-------5---7---9-------|-10------------------------------|
D|-5-------5-------5---7---9-------|-10--(strum for bar)-------------|
A|-3-------3-------3---5---7-------|-8-------------------------------|
E|---------------------------------|---------------------------------|
   1   +   2   +   3   +   4   +     1   +   2   +   3   +   4   +

------
Chorus
------

-----
Outro
-----

as Intro

David Thompson (bring_it_on53@hotmail.com)
Related for Snow tab