Guitaretab - guitar tabs
Song name
# A B C D E F G H I J K L M N O P Q R S T U V W X Y Z
Home / J / Jj72 / Improve tab

Jj72 - Improve tab

Artist: JJ72
Title: Improv
Album: JJ72
Tabbed by: Jon1001

Chords Used:
A       x 0 2 2 2 0
Amaj7   x 0 2 1 2 0
E       0 2 2 1 0 0
Emaj7   0 1 2 2 0 0


Intro (played softly)

e|-----------------------------------|
B|-----------------------------------|
G|------9-------9-------8-------8----|
D|----6---6---6---6---6---6---6---6--|
A|--7-------7-------7-------7--------| x3
E|-----------------------------------|

e|---------------------------------|
B|---------------------------------|
G|------9-------9----8-------------|
D|----6---6---6---6--6-------------|
A|--7-------7--------7-(let ring)--|
E|---------------------------------|


Riff 1
e|-----------------------------------|
B|-----------------------------------|
G|------9-------9-------8-------8----|
D|----6---6---6---6---6---6---6---6--|
A|--7-------7-------7-------7--------|
E|-----------------------------------|

Riff 2
e|--------------------------------------------------|
B|--------------------------------------------------|
G|--------14----------14----------13----------13----|
D|-----11----11----11----11----11----11----11---11--|
A|--12----------12----------12----------12----------|
E|--------------------------------------------------|


Riff 1
Decaying as I am
Riff 1
I need not some promised land
Riff 2
I know I am failing
Riff 2
acceptence was the plan

[ Tab from: http://www.guitaretab.com/j/jj72/68265.html ]
Riff 1
No silence in the sea
Riff 1
nothing tranquil awaits me
Riff 2
useless and used up
Riff 2
too much using to do


E              Emaj7
I have choosen everything
E                        Emaj7
this is what makes it so bad
   A               Amaj7
no matter what the action
    A                    Amaj7
situation was created by me
E          Emaj7
my life is different
     E                             Emaj7
this grey streets will only get me down
A               Amaj7
they will never fool me
    A                 Amaj7
and integrate me as a clown


  E         Emaj7
Decaying as I am
  E                      Emaj7
I need not some promised land
A           Amaj7
I know I am failing
  A                Amaj7
acceptence was the plan


   E              Emaj7
No silence in the sea
        E               Emaj7
nothing tranquil awaits me
A           Amaj7
useless and used up
A                 Amaj7
too much using to do


  E         Emaj7
Decaying as I am
  E                      Emaj7
I need not some promised land
A           Amaj7
I know I am failing
  A                Amaj7
acceptence was the plan


E                 Emaj7
Stumbling through patches
   E               Emaj7
of flowered mortality
A             Amaj7
my daze it is special
A                 Amaj7
you my goddess to be


E Emaj7 x3

End on E
Related for Improve tab