Song name
# A B C D E F G H I J K L M N O P Q R S T U V W X Y Z

Jj72 - Coming Home tab

yoyo, my first tab, so cut me some slack with any errors, though im pretty sure there are none. By A.M
(strum pattern hasnt been tabbed)

standard tuning

verse-

e -------------------------------------------------------------------------|
b -------------------------------------------------------------------------|
g -------------------------------------------------------------------------|
d - 9----7-------5--------------7----9--------7--------5-------------------|
a - 9----7-------5--------------7----9--------7--------5-------------------|
e - 7----5-------3--------------5----7--------5--------3-------------------|
    I am  Coming home again.         You wont be alone again

e--------------------------------------------------------------------------|
b--------------------------------------------------------------------------|
g--------------------------------------------------------------------------|
d- 5-0-5-0-2-----5-------2----5--------2----5-------2----5-----------------|
a- 5-0-5-0-2-----5-------2----5--------2----5-------2----5-----------------|
e- 3-0-2-0-0-----3-------0----3--------0----3-------0----3-----------------|
       'nd I.....Gold.   I....roads.   I....men.    I... Gold

chorus:

e----------------------------------------------------------------------|
b----------------------------------------------------------------------|
g-----------5----------------------------------------------------------|
d-----------5-----------------5-------------2-----------------5--------|
a-----------3-----------------5-------------2-----------------5--------|
e-----------------------------3-------------0-----------------3--------|
 its in you hands. its in you arms..........command. we shall disarm

repeat verse.
repeat chorus.
outro uses same chords as chorus
repeat chorus

end note

e---
b---
g--5
d--5
a--3
e---

thanks.
Tap to rate this tab
# A B C D E F G H I J K L M N O P Q R S T U V W X Y Z