Joan Jett And The Blackhearts - Make Believe tab

Make Believe - Joan Jett and the Blackhearts
Tunning: Standard
This is my second tab, I think it's correct :)

Intro:

e|------------------|
B|------------------|
G|-----5--7---------|
D|--5--5--7--5------|  x2
A|--5--3--5--5------|
E|--3--------3------|
pm............

Verse:

B|------------------------------|
G|--5-----5-----5-----5---------|
D|--5--5--5--3--5--5--5--5------| x2 then
A|--3--5--3--3--3--5--3--5------|
E|-----3-----1-----3-----3------|
pm........................

Pre-chorus "I said uh-huh uh-huh uh"
e|-----------|
B|-----------|
G|-----------|
D|--5--------|
A|--5--------|
E|--3--------|

Chorus "Its only make believe to you, yeah..."
e|---------------------     -----|
B|---------------------     -----|
G|--5----9-------------     --5--|
D|--5----9----3----5--- x2  --5--|
A|--3----7----3----5---     --3--|
E|------------1----3---     -----|
                            pm.

Verse

Chorus

Intro

Bridge at 2:20 approximately
e|-------------------|
B|-------------------|
G|----------8-5------|
D|--5-5--5--8-5------| x1
A|--5-5--5--6-3------|
E|--3-3--3-----------|

Repit Chorus until the end of the song.
That's it :)
Tap to rate this tab
 
# A B C D E F G H I J K L M N O P Q R S T U V W X Y Z