Song name
# A B C D E F G H I J K L M N O P Q R S T U V W X Y Z

Joe Bonamassa - Lonesome Road Blues tab

-------------------------------------------------------------------------------
	     LONESOME ROAD BLUES - JOE BONAMASSA
-------------------------------------------------------------------------------
Tabbed by:Duncan Forsyth
Email:duncanforsyth64@gmail.com

Tuning:Standard

Joe plays with thumb and 2nd, 3rd and 4th fingers with the pick held under the 
1st finger and flipped for solos. 


Capo at 2rd fret

Basic riff that is played through most of the song

e|---------------------------------------------------------------------------|
B|---------------------------------------------------------------------------|
G|-2-0-2-2-0--2-0-2-2-0--2-0-2-2-0--2-0-2-2-0--------------------------------|
D|-2-0-2-2-0--2-0-2-2-0--2-0-2-2-0--2-0-2-2-0--------------------------------|
A|-0-0-0-0-0--0-0-0-0-0--0-0-0-0-0--0-0-0-0-0--------------------------------|
E|---------------------------------------------------------------------------|

The only chord changes in the song are at: and I know how that lonesome etc


e|---------------------------------------------------------------------------|
B|-3-Hold-----2-0-2-2-0--2-0-2-2-0------------------2-0-2-2-0----------------|
G|-2-this-----2-0-2-2-0--2-0-2-2-0------------------2-0-2-2-0----------------|
D|-0-chord-0--0-0-0-o-0--0-0-0-0-0-2-hold----5---6--0-0-0-0-0----------------|
A|---------------------------------2-these---5---6---------------------------|
E|---------------------------------0-chord---3---4---------------------------|


Repeated solo riff

e|-----3-5-3------------------------|
B|-3h5-------5-3--------------------|
G|---------------5-----0-2-0--------|
D|-----------------0h2-------2-0----|
A|-------------------------------3--|
E|----------------------------------|



************************************

| /   slide up
| \   slide down
| h   hammer-on
| p   pull-off
| ~   vibrato
| +   harmonic
| x   Mute note
| b   Bend
| pb  Pre-bend
| br  Bend release
| pbr Pre-bend release
| brb Bend release bend

Tap to rate this tab
# A B C D E F G H I J K L M N O P Q R S T U V W X Y Z