Song name
# A B C D E F G H I J K L M N O P Q R S T U V W X Y Z

Joe Bonamassa - Jelly Roll tab

-------------------------------------------------------------------------------
                             JELLY ROLL - JOE BONAMASSA
-------------------------------------------------------------------------------
Tabbed by:Duncan Forsyth
E-mail:duncanforsyth64@gmail.com

Tuning:Standard Capo at third fret

I did a tab of the intro to this but when I listened to again i realised I
had it wrong.  This is better I think.

This is a tribute to the late great John Martyn and a really cool track to
learn.

Play the A chord with the first finger over all the strings to make it easier.
I thing Joe plays this finger style but you can use a pick.


e|----------------------------------------------------------------|
B|----------------------------------------------------------------|
G|-2-0h2p0-----0----------0h2p0-----0---------0h2p0-----0---------| 
D|-2-------4p0---4p0------------4p0---4p0-----------4p0---4p0-----|
A|-0-------------------0--------------------0-------------------0-|
E|-------------------3--------------------3-------------------3---|

e|----------------------------------------------------------------|
B|----------------------------------------------------------------|
G|-0h2p0-----0----------0h2p0-----0---------0h2p0-----0-----------| 
D|-------4p0---4p0------------4p0---4p0-----------4p0---4p0-------|
A|-------------------0--------------------0-------------------0---|
E|-----------------3--------------------3-------------------3-----|

e|---------------------------------------------------|
B|---------------------------------------------------|
G|-0h2p0-----0-------------0h2p0-----0-------2-2-0-2-|
D|-------4p0---4p0-0h2p0---------4p0---4p0---2-2-0-2-|
A|-------------------------------------------0-0-0-0-|
E|-----------------------3-----------------3---------|

e|-0-0-0-3-0-0-3-0-0-3-0-0-------------------------------0-0-0-0-0-0-|
B|-1-1-1-1-1-1-1-1-1-1-1-1-------------------------------0-0-0-3-3-3-|
G|-2-2-2-2-2-2-2-2-2-2-2-2-2-0h2p0-----0---------2-2-0-2-1-1-1-1-1-1-|
D|-0-0-0-0-0-0-0-0-0-0-0-0-2-------4p0---4p0-----2-2-0-2-0-0-0-0-0-0-|
A|-------------------------0-------------------0-0-0-0-0-2-2-2-2-2-2-|
E|-------------------------------------------3-----------0-0-0-0-0-0-|

e|-0-0-0-3-3-3-------------------------------|
B|-1-1-1-1-1-1-------------------------------|
G|-2-2-2-2-2-2-----0h2p0-----0-------2-2-0-2-|
D|-0-0-0-0-0-0-----------4p0---4p0---2-2-0-2-|
A|---------------0-------------------0-0-0-0-|
E|-------------3-------------------3---------|

Chords for verse, not all tabbed but enough for an idea, yeh. 

Palm mute the A

e|-----------------------------------------------------------------------|
B|---------------------------------------------------1-1-1-1-0-0-1-0-0-1-|
g|-2-2-2-2-2-2-2-2-2-2-2-2-2-2-2-2-2-2-2-2-2-2-2-2---2-2-2-2-0-0-2-0-0-2-|
D|-2-2-4-2-2 4-2-2-4-2-2-4-2-2-4-2-2-4-2-2-4-2-2-4---0-0-0-0-0-0-0-0-0-0-|
A|-0-0-0-0-0-0-0-0-0-0-0-0-0-0-0-0-0-0-0-0-0-0-0-0-----------------------|
E|-----------------------------------------------------------------------|


e|-----------------------------------------0-0-0-3-0-0-------------------|
B|-----------------------------0-0-0-3-3-3-1-1-1-1-1-1-------------------|
g|0h20-----0-----0-2-2-0-2-----1-1-1-1-1-1-2-2-2-2-2-2----0h2p0-----0----|
D|-----4p0---4p0-0-2-2-0-2-----0-0-0-0-0-0-0-0-0-0-0-0----------4p0---4p0|
A|---------------0-0-0-0-0-0---2-2-2-2-2-2--------------0----------------|
E|---------------------------3-0-0-0-0-0-0------------3------------------|


Solo type part

e|-0-0-0-----|          |-0-0-0-----|            |---------------------|
B|-5-5-5-----|Play this |-5-5-5-----| There is   |---------------------|
g|-5-5-5-----|as many   |-7-7-7-----| a fast bit |-2p0--2p0---2p0------|
D|-0-0-0-----|times as  |-0-0-0-----| in here    |-----4----4-----4-0--|
A|---------0-|song or   |---------0-| something  |---------------------|
E|-------3---|          |-------3---| like       |---------------------|


Then into the riff followed by a picked D7, riff again, E7 to D7 and riff 
again and on to the next verse.

The end is similar to the start. 

Hope you enjoy it. Please improve it.


************************************

| /   slide up
| \   slide down
| h   hammer-on
| p   pull-off
| ~   vibrato
| +   harmonic
| x   Mute note
| b   Bend
| pb  Pre-bend
| br  Bend release
| pbr Pre-bend release
| brb Bend release bend

************************************
Tap to rate this tab
# A B C D E F G H I J K L M N O P Q R S T U V W X Y Z