Song name
# A B C D E F G H I J K L M N O P Q R S T U V W X Y Z

Joe Purdy - Wash Away tab

"Wash Away (reprise)" - Joe Purdy
Album: Julie Blue

arr. for one acoustic guitar
Capo 5th fret

For this tab I rolled the guitar and ukulele into one part so the song is recognizable when
you play it by yourself. You dont haveta play the hammer-ons but definitely use the tab
get an idea of the picking. Listen to the actual song again, then play the chords in a 
that you feel matches the song. Have fun

Strum with a Hawaiian ukulele feel

    C                         F     (pinky stretch)
e|--------3-----3-----3----3--------5-----5-----5----5--|
B|--1---1---1-1---1-1---1-11--1---1---1-1---1-1---1-11--|
G|--0---0-----0-----0-----00--0h2-2-----2-----2-----22--|
D|--0h2-2-----2-----2-----22--0h3-3-----3-----3-----33--|
A|--0h3-3-----3-----3-----33----------------------------|
E|------------------------------------------------------|

    G                         F             C
  --------7-----7-----7----7--------5-------------8----|
  --1/3-3---3-3---3-3---3-33--1---1---1-1---8-8-8---8--|
  --2/4-4-----4-----4-----44--0h2-2-----2---0-0-0------|
  --3/5-5-----5-----5-----55--0h3-3-----3---x-x-x------|
  ------------------------------------------7-7-7------|
  ------------------------------------------8-8-8------|

C		       F
I got troubles oh, but   not today,

G
cause they're gonna wash away,

F		   C
they're gonna wash away

(Each stanza is played this way. Same chord changes with different words)

CHORUS

 xxo                  x  o o       oo
|-----0|             |----0-|   |------|
|---0--|             |--0---|   |-0----|
|----0-|             |-0----|   |0---00|
  Dm                    C          G
 Lord..	   I've been    cry-       iiiiin

 Dm                     C          G
 Lord..	   I've been    cry-       iiiiin

 Dm		        C	   G
 Ooh       no more      cry-       iiiiin

 Dm		        C	   G
 Noo	   no more      cry-       iiiiin


 Dm                     G
 Here...


 (Then it goes back to main rythym for rest of song)

   C                         F
e|--------3-----3-----3----3--------5-----5-----5----5--|
B|--1---1---1-1---1-1---1-11--1---1---1-1---1-1---1-11--|
G|--0---0-----0-----0-----00--0h2-2-----2-----2-----22--|
D|--0h2-2-----2-----2-----22--0h3-3-----3-----3-----33--|
A|--0h3-3-----3-----3-----33----------------------------|
E|------------------------------------------------------|

    G                         F             C
  --------7-----7-----7----7--------5-------------8----|
  --1/3-3---3-3---3-3---3-33--1---1---1-1---8-8-8---8--|
  --2/4-4-----4-----4-----44--0h2-2-----2---0-0-0------|
  --3/5-5-----5-----5-----55--0h3-3-----3---x-x-x------|
  ------------------------------------------7-7-7------|
  ------------------------------------------8-8-8------|

I hope that helped...
Tap to rate this tab
 
# A B C D E F G H I J K L M N O P Q R S T U V W X Y Z