Song name
# A B C D E F G H I J K L M N O P Q R S T U V W X Y Z

Joe Purdy - Surgery tab

-----------------------------------------------------------------------
			 Surgery- Jimmy Robbins (TSFA)
-----------------------------------------------------------------------

Tabbed by: Katie
Email: thiscityishaunted@hotmail.com

Tuning: Standard

*Intro/Verse*
e|-----------3------3---------3---3--|---------------3--1-|
B|--5----5-----3--3-----3-----3---3--|-5-----5--3-------1-|
G|----5---------0---------0----------|---5--------0-------|
D|-----------------------------------|--------------------|
A|-----------3-----------------------|--------------------|
E|--5--5----------------3----3----1--|-5---5----3--3----1-|

Iíll make a joke and sheíll try not to laugh
As the men made of stone find their surgery masks
I head down the road or the linoleum floor
I really canít tell anymore
I see fluorescent clouds in a white tile sky
I see trees all around with name tags on their ties
She takes my hand, and the trees turn around
and says, "Promise youíre coming back out"

*Chorus*
           
Because I.. 
 Am  F   G
Always believed you
 Am        F           G 
When you swore to me, youíd pull through
 Am     F              G
So I plugged my heart into yours, A life support, 
    Am      F       G
So see, you canít leave, 
Because I always believed


*Repeat the Intro/Verse for Verse 2*
e|-----------3------3---------3---3--|---------------3--1-|
B|--5----5-----3--3-----3-----3---3--|-5-----5--3-------1-|
G|----5---------0---------0----------|---5--------0-------|
D|-----------------------------------|--------------------|
A|-----------3-----------------------|--------------------|
E|--5--5----------------3----3----1--|-5---5----3--3----1-|

Iíll fall asleep, but sheíll still be close by
In perscription dreams, everything seems alright
I head down the street or the linoleum floor
I really canít tell anymore
I feel a clean plastic breeze moving left of my ship
And the wind blows much harder when a man flips a switch
She takes my hand, and the wind comes to a stop
she says "Promise youíre not giving up"

*Chorus*

Because I.. 
 Am  F   G
Always believed you
 Am        F           G 
When you swore to me, youíd pull through
 Am     F              G
So I plugged my heart into yours, A life support, 
    Am      F       G
So see, you canít leave, 
Because I always believed

 C   G   F   G
Believed...

*Chorus*

Because I.. 
 Am  F   G
Always believed you
 Am        F           G 
When you swore to me, youíd pull through
 Am     F              G
So I plugged my heart into yours, A life support, 
    Am      F       G
So see, you canít leave, 
Because I always believed

*Outro*
e|-----------3------3---------3---3--|---------------3--1-|
B|--5----5-----3--3-----3-----3---3--|-5-----5--3-------1-|
G|----5---------0---------0----------|---5--------0-------|
D|-----------------------------------|--------------------|
A|-----------3-----------------------|--------------------|
E|--5--5----------------3----3----1--|-5---5----3--3----1-|

Iíll make a joke and sheíll try not to laugh
As the men made of stone find their surgery masks
I head down the road or the linoleum floor
I really canít tell anymore
I see fluorescent clouds in a white tile sky
I see trees all around with name tags on their ties
She takes my hand, and the trees turn around
and says, "Promise youíre coming back out"




Tap to rate this tab
# A B C D E F G H I J K L M N O P Q R S T U V W X Y Z