Song name
# A B C D E F G H I J K L M N O P Q R S T U V W X Y Z

Joe Purdy - Wash Away chords

Highlighted       Show chord diagrams
-------------------------------------------------------------------------------
			       Wash Away - Joe Purdy
-------------------------------------------------------------------------------
Tabbed by: jtripper89
Email: jmanz1689@aol.com

Tuning: Standard


Ukulele Intro:

E|----------13-----------|
B|-----10-------10----10-|
G|-----------------------|  (x2)
D|--10---10--------10----|
A|-----------------------|
E|-----------------------|

E|----------13-----------|
B|-----11-------11----11-|
G|-----------------------|  (x2)
D|--12---12--------12----|
A|-----------------------|
E|-----------------------|

E|----------15-----------|
B|-----13-------13----13-|
G|-----------------------|  (x2)
D|--14---14--------14----|
A|-----------------------|
E|-----------------------|

E|----------13-----------|
B|-----11-------11----11-|
G|-----------------------|  (x2)
D|--12---12--------12----|
A|-----------------------|
E|-----------------------|

E|----------13-----------|
B|-----10-------10----10-|
G|-----------------------|  (x2)
D|--10---10--------10----|
A|-----------------------|
E|-----------------------|


Intro and verses: F Bb C Bb F (Short mellow Hawaiian sounding strums)

 F                 Bb
I got troubles oh, but not today,
 C
Cause they're gonna wash away,
 Bb              F
They're gonna wash away...

And I have sins Lord - but not today
Cause they're gonna wash away,
They're gonna wash away...
And I had friends oh - but not today,
Cause they're done washed away,
They're done washed away...

Chorus:

Gm            F   C
Oh, I've been cryin'
Gm            F   C
Oh, I've been cryin'
Gm              F   C
And oh, no more cryin'
Gm          F   C  Bb
No, no more cryin' here...


We get along Lord - but not today,
Cause we gonna wash away,
We gonna wash away...

And I got troubles oh but - not today
Cause they gonna wash away,
This old heart gonna take them away...

------------------------------------------
My first tab - hope this helped with the ukulele intro
Tap to rate this tab
 
# A B C D E F G H I J K L M N O P Q R S T U V W X Y Z