Song name
# A B C D E F G H I J K L M N O P Q R S T U V W X Y Z

Joe Satriani - Starry Night tab

The other tab for this song is perfect, but I usually watch the G3 Live in Denver 
version of this song, so here is the solo that comes after the cool little riff thing.

This isn't all perfect, but it's the key stuff and it sounds cool anyway

---------------------------------------------|
---------------------------------------------|
--------------8-------8-10-8~---------10-8~--|
--8p5h8-10-10------10---------10-8-10--------|
---------------------------------------------|
---------------------------------------------|

-----------------------------------------------|
---------8-11~-11-10~-8----8-------------------|
----8-10----------------10---10-8---------8-10-|
8-10-------------------------------10--10------|
-----------------------------------------------|
-----------------------------------------------|

Then it goes a bit fast, revolving mainly around licks like this:

-----8------8-------8---------       -----8---------8----------8----|
-11b--8-11b--8-11b---8-11b----       -11b---11p8-11b--11p8-11b--11--|b
------------------------------ and   -------------------------------|
------------------------------       -------------------------------|
------------------------------       -------------------------------|
------------------------------       -------------------------------|


-11b-11b-11b-8----8~----8-10-11-11p10p8-11b~-8-8-|
---------------11----11--------------------------|
-------------------------------------------------|
-------------------------------------------------|
-------------------------------------------------|
-------------------------------------------------|

-------11-13-13b-13b-13b-13b-13b-13b-13-14-13-11-13-11-13-13b------|
-11-13-------------------------------------------------------13-13-|
-------------------------------------------------------------------|
-------------------------------------------------------------------|
-------------------------------------------------------------------|
-------------------------------------------------------------------|

--------13----16b---------------------------------------------|
-/13-16----13-----16-13-11-13~----13-15-16-13-16-13-16b-13-13-|
-------------------------------15-----------------------------|
--------------------------------------------------------------|
--------------------------------------------------------------|
--------------------------------------------------------------|

-15-----15-----15-----15-----15--------|
----18b----18b----18b----18b----18b----|
---------------------------------------| A few times
---------------------------------------|
---------------------------------------|
---------------------------------------|

--------------------------------13-15-13----13-----------|
-18b18b18b18b18b16-18-18b-16-------------16----16-13-----|
-----------------------------17--------------------------|
---------------------------------------------------------|
---------------------------------------------------------|
---------------------------------------------------------|

---18-22b-20-18-20-22b----18-20-22b22b-20-18-20-18-20-22--|b
-20--------------------20---------------------------------|
----------------------------------------------------------|
----------------------------------------------------------|
----------------------------------------------------------|
----------------------------------------------------------|

-----------------------------------------------------------|
-16b-13----13----------------------------------------------|
--------15---------Then-it-gets-fast-I-suggest-------------|
-------------------you-improvise-in-C-pentatonic-----------|
-------------------and-Eb-Major----------------------------|
-----------------------------------------------------------|


Hope you Enjoy

Tabbed by Cammies
Tap to rate this tab
 
# A B C D E F G H I J K L M N O P Q R S T U V W X Y Z