Song name
# A B C D E F G H I J K L M N O P Q R S T U V W X Y Z

Joel Plaskett - Through And Through And Through chords

Highlighted       Show chord diagrams
intro - D B# A G

verse (i'm the berlin wall, i'm a communist ...)
    D       A       D       G
E---2-2-2-2---------2-2-2-2-1-1-1-1-|
B---3-3-3-3-2-2-2-2-3-3-3-3---------|
G---2-4-2-4-2-2-2-2-2-4-2-4---------|
D---0-0-0-0-2-4-2-4-0-0-0-0---------|
A-----------0-0-0-0---------2-2-2-2-|
E---------------------------3-3-3-3-|

bridge (they say that good things come ....)
    A 
E-----------|----------|--------|
B---2-2-2-2-|-2-2-2-3--|-x-x-x--|
G---2-2-2-2-|-2-2-2-2--|-x-x-x--|
D---2-4-5-4-|-2-4-5-4--|-x-x-x--|
A---0-0-0-0-|-0-0-0-0--|-x-x-x--|
E----------|-----------|--------|

chorus (are you feeling blue? ...)
B# A G
Tap to rate this tab
# A B C D E F G H I J K L M N O P Q R S T U V W X Y Z