Song name
# A B C D E F G H I J K L M N O P Q R S T U V W X Y Z

Joel Plaskett - Extraordinary tab

Highlighted       Show chord diagrams
Extraordinary - Nizlopi
Tabbed by Bastiaan Nijbroek


Chords verse:

    F                C7sus4     C7          A7sus4   A7
e|-------------------------------------------------------|
B|--10--10---x--10-----8---------8----------5--------5---|
G|--10--10---x--10----10---------9----------7--------6---|
D|--10--10---x--10-----8---------8----------5--------5---|
A|---8---8---x---8----10--x--x--10---x--x---7--x--x--7---|
E|---------------------8--x--x---8---x--x---5--x--x--5---|


  Dm7              Gm7           Dm7
e|--5--5--x----5----10-----10--x---5---|
B|--6--6--x----6----10h11--11--x---6---|
G|--5--5--x----5----10-----10--x---5---|
D|--7--7--x----7----10h12--12--x---7---|
A|--5--5--x----5----10-----10--x---5---|
E|-------------------------------------|


F                                   C7sus4     C7        
  A7
She draws my very depths from me in moments of astounded ecsta----sy
Dm7
Why would I stop her getting next to me?
       Gm7			  Dm7
I just love her whole heart there sexing me oh!
F                                  C7sus4    C7         
 A7
My love is collecting me fields of roses and kissing me open----ly
Dm7
She's God she's excepting me
          Gm7                     Dm7
The whole field late June getting wet for me WO!
F                                       C7sus4  C7      
 A7
I love what she sweats from me laughing as we   melt in infini--ty
Dm7
Perfect elegant boobs like a Da Vinci
        Gm7                        Dm7
I can't wait 'til she shows me her blackberry


Chords chorus:

   F         F/G     F/A     C#m7 D7   C7
e|-----------------------------------------------------|
B|-10---10---------------------------------------------|
G|-10---10---10-10---10-10-------------10-10---9---9---|
D|-10---10---10-10---10-10---9--9/10----x-x----x---x---|
A|--8----8---10-10---12-12---x--x------10-10--10--10---|
E|---------------------------9--9/10----8--8---8---8---|

F                   F/G            F/A    C#m7 - D7
Turn out the lights switch off the telly
                        C7sus4 C7
We're making love extra-ordi---nary
F                          F/G       F/A   C#m7 - D7
Switch off our phones draw closer to me
                       C7sus4 C7
We can make life extra-ordi---nary


Verse 2:

God knows but she gets to me
I'm kernel Mustard with the horn in the refectory
Laughter and love denote destiny
You ride a bike and read Rilke
So it's meant to be Love!
You know Im just glad to be singing
Because yesterday
I was as blue as George Galloway investing in
The false hope of my Ego and not resting in
My hearts festivity the song that your giving me
Inner light will set you free from false captivity
Wake up your heart to being
A voice that is seeing
What you and me can be in
In Love

Turn out the lights switch off the telly
We're making love extra-ordinary
Switch off our phones draw closer to me
We can make life extra-ordinary


Bridge (almost similar to the chorus with a slight change, dont know the chord name its 
power chord based on F)

   ?
e|-------------------|
B|---------8-----8---|
G|-10-----10-----9---|
D|--8------8-----8---|
A|--8-----10----10---|
E|---------8-----8---|


?                                 C7sus4  C7           F (same as the chorus)
You and me can open up our hearts just by being by our selves
?                                C7sus4  C7              F (same as the chorus)
You and me can overcome the pain just by feeling all our wealth inside

Turn out the lights switch off the telly
We're making love extra-ordinary
Switch off our phones draw closer to me
We can make life extra-ordinary
We can make life
Tap to rate this tab
# A B C D E F G H I J K L M N O P Q R S T U V W X Y Z