Guitaretab - guitar tabs
Song name
# A B C D E F G H I J K L M N O P Q R S T U V W X Y Z

Johan Ludvig Runeberg - Maamme Finland Athem tab

e|-------------------- --------------- --------------------------|
B|------------------9- --------------- --------------------------|
G|-----------9-11----- -9----11-9-8-9- ---11-9-8-----------------|
D|-9-------9------9--- ---11---------- -9--------11-9-------11-9-|
A|---11-12------------ --------------- ---------------12-11------|
E|-------------------- --------------- --------------------------|
  Oi maamme...         Soi sana...     Ei laaksoa-...
e|-------------------------- ------------------- ----------------|
B|-------------------------- -----------------9- ----------------|
G|---11-9-8----------------- ---9--------9-11--- -9----11-9-8-9--|
D|-9--------11-9-------11-9- -9---9----9-------- ---11-----------|
A|---------------12-11------ -------11---------- ----------------|
E|-------------------------- ------------------- ----------------|
  Ei vettä...                Kuin kotimaa...     Maa kallis...
[ Tab from: http://www.guitaretab.com/j/johan-ludvig-runeberg/118383.html ]
Related for Maamme Finland Athem tab
Advertisement will be closed in 10 seconds