Song name
# A B C D E F G H I J K L M N O P Q R S T U V W X Y Z

Johan Ludvig Runeberg - Maamme Finland National Anthem tab

e --------------------5------------------|
b -1----------6--8-------6----8--6--5--6-|
g ---2--3--5---------5-----7-------------|
d ---------------------------------------|
a ---------------------------------------|
E ---------------------------------------|

e ----3----------------------------|
b -------6--5--3-----------3--5----|
g -5--------------5--3--2----------|
d ---------------------------------|   2X
a ---------------------------------|
E ---------------------------------|

e ---------------3-5-------------------|
b ---6--------6-------6-----8--6--5--6-|
g -5---5----5------------7-------------|
d --------7----------------------------|
a -------------------------------------|
E -------------------------------------|


Listen the song from youtube and you'll see that it goes like this!

Enjoy!
Tap to rate this tab
 
# A B C D E F G H I J K L M N O P Q R S T U V W X Y Z