Song name
# A B C D E F G H I J K L M N O P Q R S T U V W X Y Z

Johann Pachelbel - Canon In D tab

                              Canon in D                                    
                            Johann Pachelbel

Drop D Tuning (DADGBe)

     E  E  E  E  E  E  E  E     E  E  E  E  E  E  E  E   
E||-----------2--------------|--------------------------|
B||--------3--------------2--|-----------3-----------2--|
G||-----2--------------2-----|--------4-----------2-----|
D||--0--------------2--------|-----4-----------4--------|
A||--------------0-----------|--2-----------------------|
D||--------------------------|--------------4-----------|


  E  E  E  E  E  E  E  E     E  E  E  E  E  E  E  E   
--------------------------|--------------------------|
-----------0-----------3--|-----------3-----------2--|
--------0-----------2-----|--------4-----------2-----|
-----0-----------4--------|-----5-----------2--------|
--------------------------|--------------0-----------|
--5-----------0-----------|--5-----------------------|


  E  E  E  E  E  E  E  E     E  E  E  E  E  E  E  E   
--2-----------0-----------|--------------------------|
-----------3--------2-----|--3-----------2-----------|
--------2--------2--------|--------4-----------2-----|
-----0-----------------2--|-----4-----4-----4-----4--|
--------------0-----------|--2-----------------------|
--0-----------------------|--------------4-----------|


  E  E  E  E  E  E  E  E     E  E  E  E  E  E  E  E   
--------------------------|--------------------------|
--0-----------------------|--0--------0--2--------2--|
--------0-----2-----------|--------0-----------2-----|
-----0-----0--------4-----|-----0-----------2--------|
-----------------5-----5--|--------------0-----------|
--5-----------0-----------|--5-----------------------|


  E  E  E  E  E  E  E  E     E  E  E  E  E  E  E  E   
--2-----------0-----------|--------------------------|
--3-----3-----2-----2-----|--3-----------2-----------|
-----2-----------2--------|--4-----4-----2-----2-----|
-----------0-----------2--|-----4-----------4-----4--|
--------------0-----------|--2--------2--------------|
--0-----------------------|--------------4-----------|


  E  E  E  E  E  E  E  E     E  E  E  E  E  E  E  E   
--------------------------|--------------------------|
--0-----------------------|--0--------0--2--------2--|
--0-----0-----2-----------|--0-----0-----2-----2-----|
-----0-----0--4-----4-----|-----0-----------2--------|
-----------------5-----5--|--------------0-----------|
--5-----------0-----------|--5-----------------------|


  E  E  E  E  E  E  E  E     E  E  E  E  E  E  E  E   
--------2-----5-----3-----|--2-----------2-----------|
--3-----3--------------2--|--------3-----------2-----|
-----2-----2--------2-----|--------4-----------2-----|
--0--------------2--------|-----4-----4-----4-----4--|
--------------0-----------|--2-----------------------|
--------------------------|--------------4-----------|


  E  E  E  E  E  E  E  E     E  E  E  E  E  E  E  E   
--------------------------|--------------------------|
--3-----0-----3-----------|--3-----------3-----2-----|
--------0-----------2-----|--------4-----------2-----|
-----0-----0-----4-----4--|-----5-----5-----2-----2--|
--------------------5-----|--------------0-----------|
--5-----------0-----------|--5-----5-----------------|


  E  E  E  E  E  E  E  E     E  E  E  E  E  E  E  E   
--------------------------|--------------------5--7--|
--3--2--3-----------------|-----3--2--0-----7--------|
-----------------2--------|--------------6-----------|
-----------0--------2--4--|--0-----------------------|
--------------0-----------|--2-----------------------|
--0-----------------------|--------------------------|


  E  E  E  E  E  E  E  E     E  E  E  E  E  E  E  E   
--------------------------|--------------------------|
--8--7--5--8--7--5--------|--0-----------------------|
--------------------7--6--|-----2--0--------0--------|
--------------------------|-----------4--2-----4--2--|
--------------------------|--------------0-----------|
--5-----------------------|--5-----------------------|


  E  E  E  E  E  E  E  E     E  E  E  E  E  E  E  E   
--------------------------|--------------------------|
--------------------------|--------------------------|
-----------0--2-----2--0--|-----4--2--0--2--0--------|
--0--2--4--------2--------|--4-----------------4--2--|
--------------0-----------|--2-----------------------|
--0-----------------------|--------------4-----------|


  E  E  E  E  E  E  E  E     E  E  E  E  E  E  E  E   
--------------------------|--------------------------|
--------------------------|-----------0--------------|
--0--------0--------------|--0-----------2--4--2--0--|
-----4--2-----4--2--0--4--|-----4--2-----------------|
--------------------------|--------------0-----------|
--5-----------0-----------|--5-----------------------|


  E  E  E  E  E  E  E  E     E  E  E  E  E  E  E  E   
--------2-----0-----------|--------------2-----------|
-----------3--2-----2-----|--3-----------------------|
--------2--------2-----0--|--------4-----------2-----|
-----0--------------------|-----4-----4-----4-----2--|
--------------0-----------|--2-----------------------|
--0-----------------------|--------------4-----------|


  E  E  E  E  E  E  E  E     E  E  E  E  E  E  E  E   
--7-----------5--------0--|--7-----------5-----------|
--------0-----------7-----|--------0--------5--------|
-----------0--------------|-----------0--------6-----|
-----0-----------0--------|-----0-----------------7--|
--------------------------|--------------0-----------|
--5-----------0-----------|--5-----------------------|


  E  S S E  S S S S S S S S S S    E  S S E  S S S S S S S S S S  
--5--2-3-5--2-3-5---------0-2-3-|--2------2----------------------|
--------------------0-2-3-------|-----3-5----------0-------------|
------------------2-------------|--------------0-2---2-0-2---0-2-|
--------------------------------|------------4-------------4-----|
----------------0---------------|--2-------------4---------------|
--0-----------------------------|--------------------------------|


  E  S S E  S S S  S S S S S S S    E  S S E  S S S S S S S S S S  
---------------------------------|------------------------0-2-3-5-|
-----0-------------------------0-|-----0---0--2-3---0-2-3---------|
--0----2-0-----------------0-2---|--0----2--------2---------------|
------------4-2-4s-2-0-2-4-------|--------------------------------|
---------------------------------|----------------0---------------|
--5-------------0----------------|--5-----------------------------|


  E  S S E  S S S S S S S S S  S     E  S S E  S S S S S S S S S  S  
--2----0-2--0---0-----0-2-0-------|---------------------------------|
-----3--------3---2-3-------3S-2S-|--3----2-3----------------3-2S-3-|
----------------------------------|-----4------------0--------------|
----------------------------------|------------0-2-4---4-2-4--------|
----------------0-----------------|--2------------------------------|
--0-------------------------------|----------------4----------------|


  E  S S E  S S S S S S S S S  S    E  S S E  S S S S S S S S S S   
---------------------------------|---------------------------------|
-----3---0----------------0-2S-3-|-----3---3----0-2-3-5-3-2-3-0-2S-|
--4----6----2-0-2-0---0-2--------|--4----6----6--------------------|
--------------------4------------|---------------------------------|
---------------------------------|----------------0----------------|
--5-------------0----------------|--5------------------------------|


  E  S S E  E  E  S  S E  E     E  S S E  E  E  S S E  E   
--2----0-2-----0-------0-----|----------------------------|
--3--3------3--2--2S-3----2--|--3----2-3-----2------------|
--2------------2-------------|--4--4------4--2--2---------|
-----------------------------|--4------------4----5-4--2--|
---------------0-------------|--2-------------------------|
--0--------------------------|---------------4------------|


  E  S S E  E  E  S S E  E     E  S S E  E  E  S S E  E   
----------------------------|----------------------------|
--0-------------------------|--0--0----------------------|
--0--0------0--2---------2--|--0----2-0--------2-0-------|
--0----4-2-----4----2-4-----|--0---------4--2------4--0--|
---------------5--5---------|---------------0------------|
--5------------0------------|--5-------------------------|


  E  S S E  E  E  S S E  E     E  S S E  E  E  S S E  E   
----------------------------|---------2-----2--2---------|
-----3-2-3----------0-2-----|-----3-5----3-------5-3--2--|
---------------2--2------2--|----------------------------|
--4---------4---------------|--4-------------------------|
---------------0------------|--2-------------------------|
--0-------------------------|---------------4------------|


 E  S S E  E  E  S S E  E   E  S S E  E  E  S E  E.     E  S S E  E S S E   
-----------------2-0----2-|-3------------------------|--2------2--2--3-2---|
-0--0---0--2--3------3----|----3-----------------2---|--3---------2------5-|
------2-------------------|------6-4--4--2----2--2---|--2----2----2--------|
--------------------------|-----------------2----2---|-----0------2--------|
--------------------------|--------------0-----------|------------0--------|
-5------------0-----------|-5------------------------|--0------------------|


  E  S S E  E  S S E     E  S S E  E  S S E     E  S S E  E  S S E   
---------------0------|---------0--2----0----|----------------------|
--3------3--3----3-2--|--0----0----3----3----|--3----------------2--|
--4----4----2---------|--0--0---------2---2--|--0--5-4-5--2----2----|
--4--4----------------|--0-------------------|--0---------2--2------|
--2-------------------|----------------------|------------0---------|
------------4---------|--5---------0---------|--5-------------------|


  E  E  E  E  E  E  E  E     E  E  E  E  E  E  E  E   
-----------5--5--7--5--3--|--2--------2--2--3--2--0--|
-----------7--7--8--7--5--|--3--------3--3--5--3--2--|
--------7-----------------|--4-----4-----------------|
-----0--------------------|-----4--------------------|
--------------0-----------|--2-----------------------|
--0-----------------------|--------------4-----------|


  Q    S S E  Q    S S E     Q    S S E  Q    S S E   
--------------------------|--------------------------|
--3-----------------------|--3-----------2--------2--|
-------5-4-5--2------2----|--0----5-4-5--2------2----|
-------------------4---0--|--0----------------2------|
--------------------------|--------------0-----------|
--5-----------0-----------|--5-----------------------|


  E  E  E   E   E  E   E  E     E  E   E  E   E   E  E  E   
-------------------7---------|--------10-------------9-----|
--------7--10--10-----10--8--|--7---------7--10s--7-----7--|
-----7-----------------------|-----7-----------------------|
-----------------------------|-----------------------------|
-----------------------------|----------------9------------|
--0-------------7------------|--9--------------------------|


  Q    S S E  Q    S S E     Q    S S E  Q    S S E   
--7-----------5-----------|--7-----------5----5------|
-----------0-----------7--|---------0----5------5----|
---------7-----------7----|-----------0--6--------6--|
-------0-----------0------|-------0------7-----------|
--------------------------|--------------0-----------|
--5-----------0-----------|--5-----------------------|


  E  E  E  E  E  E  E  E     E  E  E  E  E  E  E  E   
--2-----------------------|--------------------------|
--3--------3--------2-----|--3-----------------1-----|
--2-----2--------2--------|--4-----4-----------2-----|
-----0-----------------2--|--4--4-----4-----------0--|
--------------0-----------|--2--------------0--------|
--0-----------------------|--------------4-----------|


  E  E  E  E  E  E  E  E     E  E  E  E  T T T T T T T T Q     
--------------------------|--0--------------------------------|
--0--------3--------3-----|--0--0--------2-3-2-3-2-3-2-3-L----|
--0-----0-----2--------2--|--0-----0-----2-------------L------|
--0--0-----------4--------|-----------0--2-------------L------|
--------------------------|--------------0-------------L------|
--5-----------0-----------|--5--------------------------------|


  ^                                      
  W                                      
-------------------|-------------------||
--3----------------|-------------------||
--2----------------|-------------------||
--4----------------|-------------------||
--0----------------|-------------------||
--0----------------|-------------------||




Duration Legend
---------------
W - whole
H - half
Q - quarter
E - 8th
S - 16th
T - 32nd
X - 64th
. - note dotted
|-n-|  - n-tuplets


Tablature Legend
----------------
L - tied note
x - dead note
g - grace note
(n) - ghost note
> - accentuded note
NH - natural harmonic
AH - artificial harmonic
TH - tapped harmonic
SH - semi harmonic
PH - pitch harmonic
h - hammer on
p - pull off
b - bend
br - bendRelease
pb - preBend
pbr - preBendRelease
brb - bendReleaseBend
\n/ - tremolo bar dip
\n - tremolo bar dive
-/n - tremolo bar Release up
/n\ - tremolo bar inverted dip
/n - tremolo bar return
-\n - tremolo bar Release down
S - shift slide
s - legato slide
/ -  slide into from below or out of upwards
\ -  slide into from above or out of downwards
~ - vibrato
W - wide vibrato
tr - trill
TP - tremolo picking
T - tapping
S - slap
P - pop
< - fade in
^ - brush up
v - brush down
Tap to rate this tab
# A B C D E F G H I J K L M N O P Q R S T U V W X Y Z