Song name
# A B C D E F G H I J K L M N O P Q R S T U V W X Y Z

Johann Pachelbel - Pachelbels Canon tab

Help us improve GuitareTab! Take a short survey!
Standard tuning except low E string needs to be brought down to a D.  You can do 
this by making the 7th fret on the low E string sound like the A string.  Enjoy! <3

E-|-------2--------|----------------|----------------|----------------|
B-|-----3---------2|-------3-------2|-------0-------3|-------3-------2|
G-|---2---------2--|-----4-------2--|-----0-------2--|-----4-------2--|
D-|-0---------2----|---4-------4----|---0-------4----|---5-------2----|
A-|---------0------|-2--------------|----------------|---------0------|
D-|----------------|---------4------|-5-------0------|-5--------------|

E-|-2-------0------|----------------|----------------|----------------|
B-|-------3-----2--|-3-------2------|-0--------------|-0-----0-2-----2|
G-|-----2-----2----|-----4-------2--|-----0---2------|-----0-------2--|
D-|---0-----------2|---4---4---4---4|---0---0-----4--|---0-------2----|
A-|---------0------|-2--------------|-----------5---5|---------0------|
D-|-0--------------|---------4------|-5-------0------|-5--------------|

E-|-2-------0------|----------------|----------------|----------------|
B-|-3---3---2---2--|-3-------2------|-0--------------|-0-----0-2-----2|
G-|---2-------2----|-4---4---2---2--|-0---0---2------|-0---0---2---2--|
D-|-------0-------2|---4-------4---4|---0---0-4---4--|---0-------2----|
A-|---------0------|-2-----2--------|-----------5---5|---------0------|
D-|-0--------------|---------4------|-5-------0------|-5--------------|

E-|-----2---5---3--|-2-------2---0--|----------------|----------------|
B-|-3---3---------2|-----3----------|-3---0---3------|-3-------3---2--|
G-|---2---2-----2--|-----4-------2--|-----0-------2--|-----4-------2--|
D-|-0---------2----|---4---4---4----|---0---0---4---4|---5---5---2---2|
A-|---------0------|-2--------------|-------------5--|---------0------|
D-|----------------|---------4------|-5-------0------|-5---5----------|

E-|----------------|-------------5-7|-----------0----|----------------|
B-|-3-2-3----------|---3-2-0---7----|-8-7-5-8-7---3-2|-0--------------|
G-|-----------2----|---------6------|----------------|---2-0-----0----|
D-|-------0-----2-4|-0--------------|----------------|-------4-2---4-2|
A-|---------0------|-2--------------|----------------|---------0------|
D-|-0--------------|---------4------|-5-------0------|-5--------------|

E-|----------------|----------------|----------------|----------------|
B-|----------------|----------------|----------------|-------0--------|
G-|-------0-2---2-0|---4-2---2------|-0-----0--------|-0-------2-4-2-0|
D-|-0-2-4-----2----|-4-----5---5-4-2|---4-2---4-2-0-4|---4-2----------|
A-|---------0------|-2--------------|----------------|---------0------|
D-|-0--------------|---------4------|-5-------0------|-5--------------|

E-|-----2---0------|---------2------|-7-------5------|-7-------5------|
B-|-------3-2---2--|-3--------------|-----0-------7-5|-----0-----5----|
G-|-----2-----2---0|-----4-------2--|-------0--------|-------0-----6--|
D-|---0------------|---4---4---4---2|---0-------0----|---0-----------7|
A-|---------0------|-2--------------|----------------|---------0------|
D-|-0--------------|---------4------|-5-------0------|-5--------------|

E-|-5---2-3-5---2-3-5---------0-2-3|-2-------2----------------------|
B-|---------------------0-2-3------|-----3-5-----------0------------|
G-|-------------------2------------|---------------0-2---2-0-2---0-2|
D-|--------------------------------|-------------4-------------4----|
A-|-----------------0--------------|-2------------------------------|
D-|-0------------------------------|-----------------4--------------|

E-|--------------------------------|---------------------------2-3-5|
B-|-----0-------------------------0|-----0---0---2-3---0-2-3-5------|
G-|-0-----2-0-----------------0-2--|-0-----2---------2--------------|
D-|-------------4-2-4-2-0-2-4------|--------------------------------|
A-|--------------------------------|-----------------0--------------|
D-|-5---------------0--------------|-5------------------------------|

E-|-2-----0-2---0---0-----0-2-0----|--------------------------------|
B-|-----3---------3---2-3-------3-2|-3-----2-3-----------------3-2-3|
G-|--------------------------------|-----4-------------0------------|
D-|--------------------------------|-------------0-2-4---4-2-4------|
A-|-----------------0--------------|-2------------------------------|
D-|-0------------------------------|-----------------4--------------|

E-|--------------------------------|---------------------0----------|
B-|-3---3---0-----------------0-2-3|-----3---3-----0-2-3---3-2-3-0-2|
G-|-4-----6-----2-0-2-0---0-2------|-4-----6-----6------------------|
D-|---------------------4----------|--------------------------------|
A-|--------------------------------|-----------------0--------------|
D-|-5---------------0--------------|-5------------------------------|

E-|-2-----0-2-------0-------0------|--------------------------------|
B-|-3---3-------3---2---2-3-----2--|-3-----2-3-------2--------------|
G-|-2---------------2--------------|-4---4-------4---2---2----------|
D-|--------------------------------|-4---------------4-----5-4---2--|
A-|-----------------0--------------|-2------------------------------|
D-|-0------------------------------|-----------------4--------------|

E-|--------------------------------|--------------------------------|
B-|-0------------------------------|-0---0--------------------------|
G-|-0---0-------0---2-----------2--|-0-----2-0-----------2----------|
D-|-0-----4-2-------4-----2-4------|-0-----------4---2-----5----2---|
A-|-----------------5---5----------|-----------------0--------------|
D-|-5---------------0--------------|-5------------------------------|

E-|--------------------------------|-------0-2-------2---2-0--------|
B-|-----3-2-3-------------0-2------|-----3-------3-----------3---2--|
G-|-----------------2---2-------2--|--------------------------------|
D-|-4-----------4------------------|-4------------------------------|
A-|-----------------0--------------|-2------------------------------|
D-|-0------------------------------|-----------------4--------------|

E-|---------------------2-0-----2--|-3------------------------------|
B-|-0---0---0---2---3-------3------|-----3-----------------------2--|
G-|-------2------------------------|-------6-4---4---2-------2---2--|
D-|--------------------------------|---------------------2-------2--|
A-|--------------------------------|-----------------0--------------|
D-|-5---------------0--------------|-5------------------------------|

E-|-2-----2-2-3-2-0|----------------|-------0-2---0--|----------------|
B-|-3-------2------|-3-----3-3-5-3-2|-0---0---3---3--|-3-------------2|
G-|-2---2---2------|-4---4---2------|-0-0-------2---2|-0-5-4-5-2---2--|
D-|---0-----2------|-4-4------------|-0--------------|-0-------2-2----|
A-|---------0------|-2--------------|----------------|---------2------|
D-|-0--------------|---------4------|-5-------0------|-5--------------|

E-|-------5-5-7-5-3|-2-----2-2-3-2-0|----------------|----------------|
B-|-------7-7-8-7-5|-3-----3-3-5-3-2|-3--------------|-3-------2-----2|
G-|-----7----------|-4---4----------|---5-4-5-2---2--|-0-5-4-5-2---2--|
D-|---0------------|---4------------|-----------4---0|-0-------2-2----|
A-|---------0------|-2--------------|----------------|---------0------|
D-|-0--------------|---------4------|-5-------0------|-5--------------|

E-|-----------7----|----10--------9--|-7-------5------|-7-------5-5----|
B-|-----71010--10-8|-7-----7-10p7---7|-------0-------7|-----0---5---5--|
G-|---7------------|---7-------------|-----7-------7--|-------0-6-----6|
D-|----------------|-----------------|---0-------0----|---0-----7------|
A-|----------------|----------9------|----------------|---------0------|
D-|-0-------7------|-9---------------|-5-------0------|-5--------------|

E-|-2--------------|----------------|----------------|-0--------------|
B-|-3-----3-----2--|-3-----------1--|-0-----3-----3--|-0-0-----3232323|
G-|-2---2-----2----|-4---4-------2--|-0---0---2-----2|-0---0---2------|
D-|---0-----------2|-4-4---4-------0|-0-0-------4----|-------0-2------|
A-|---------0------|-2---------0----|----------------|---------0------|
D-|-0--------------|---------4------|-5-------0------|-5--------------|

E-|----------------|
B-|--0---1----3----|
G-|-----------2----|
D-|-----------4----|
A-|--0--------0----|
D-|-----------0----|
Related for Pachelbels Canon tab