Song name
# A B C D E F G H I J K L M N O P Q R S T U V W X Y Z

Johannes Brahms - Brahms Lullaby tab

*My First TAB and First one I learned so I hope it fits together!


1----------------------------------------------------------|
2----------------------------------------------------------|
3------------------------0---------------------------------|
4-------0--------0----0-----3--2--2--0---------------------|
5--2-2------2-2------2-------------------------------------|
6----------------------------------------------------------|

1------------------------------------------3----0----------|
2------------------------------------------------1---3--0--|
3--------------------------------0----00-----------------0-|
4------------------------32-0-3----------------------------|
5---02-3-0--02--3----03------------------------------------|
6----------------------------------------------------------|

1-------0-------------3--0----------------------3----------|
2---1-3----0--3-----------1-3----0----1-0------------------|
3-----------------00--------------0-------2-0--------------|
4----------------------------------------------------------|
5----------------------------------------------------------|
6----------------------------------------------------------|
Tap to rate this tab
# A B C D E F G H I J K L M N O P Q R S T U V W X Y Z