Song name
# A B C D E F G H I J K L M N O P Q R S T U V W X Y Z

Johannes Brahms - Lullaby tab

So, I'm not sure if this is the right way to play it, but it sounds pretty good.


Intro:
|---------------------------------------|
|------1-------1-------1-------1--------|
|----------0-------0-------0-------0----|
|--------2-------2-------2-------2------|
|----3-------3-------3-------3----------|
|---------------------------------------|

Rest of the Song:
|-----------------------------------------------------------------------|
|------1-------1-------1-------1-------1-------1-------1-------1--------|
|----------0-------0-------0-------0-------2-------0-------0-------0----|
|--------2-------0-------2-------2-------2-------0-------2-------2------|
|----3-------2-------3-------3-------0-------2-------3-------3----------|
|-----------------------------------------------------------------------|
Tears that angels cry
And they darken all the sky

|-----------------------------------------------------------------------|
|------1-------1-------1-------1-------1-------1-------1-------1--------|
|----------0-------0-------0-------0-------2-------0-------0-------0----|
|--------0-------0-------2-------2-------2-------0-------2-------2------|
|----2-------2-------3-------3-------0-------2-------3-------3----------|
|-----------------------------------------------------------------------|
When the one you love says good-bye
Tears that angels cry


|-----------------------------------------------------------------------|
|------1-------1-------1-------1-------1-------1-------1-------1--------|
|----------0-------0-------0-------0-------2-------0-------0-------0----|
|--------2-------0-------2-------2-------2-------0-------2-------2------|
|----3-------2-------3-------3-------0-------2-------3-------3----------|
|-----------------------------------------------------------------------|
Sing a lullaby
Sing it soft and only sigh

|-----------------------------------------------------------------------|
|------1-------1-------1-------1-------1-------1-------1-------1--------|
|----------0-------0-------0-------0-------2-------0-------0-------0----|
|--------0-------0-------2-------2-------2-------0-------2-------2------|
|----2-------2-------3-------3-------0-------2-------3-------3----------|
|-----------------------------------------------------------------------|
When the one you love says good-bye
Sing a lullaby

|-----------------------------------------------------------------------|
|------1-------1-------1-------1-------1-------1-------1-------1--------|
|----------0-------0-------0-------0-------2-------0-------0-------0----|
|--------2-------0-------2-------2-------2-------0-------2-------2------|
|----3-------2-------3-------3-------0-------2-------3-------3----------|
|-----------------------------------------------------------------------|
(Series of "Dee"s)

|-------------------------------------------------------------0----|
|------1-------1-------1-------1-------1-------1-------1------1----|
|----------0-------0-------0-------0-------2-------0-------0--0----|
|--------0-------0-------2-------2-------2-------0-------2----2----|
|----2-------2-------3-------3-------0-------2-------3--------3----|
|-------------------------------------------------------------0----|
When your love still is strong
When the one you love is gone



The song kind of fades out, so you can't hear the end, but I just strum C when he says "gone".

All in all, it's a fairly easy song to play.
If you have any questions or comments, just email me at valiantsupercow@yahoo.com

Thank you.
- Jeff
Tap to rate this tab
 
# A B C D E F G H I J K L M N O P Q R S T U V W X Y Z