Song name
# A B C D E F G H I J K L M N O P Q R S T U V W X Y Z

John Butler Trio - Groovin Slowly tab

John plays this on Uke, but i thought some people would like it on guitar.
This might possibly be one of the greatest slower songs of all time!

Enjoy.



Standard Tuning (EADGBe)

capo on 7th fret

verse (and chorus)

e|-----------------------------------------------------------------------------------|
B|--------0-0-----0-0----0-0-----0-0----2-2-----2-2----2-2-----2-0----0-0-----0------|
G|--------0-0-2---0-0----0-0-2---0-0----2-2-----2-2----2-2-----2-0----0-0-2---0--etc-|
D|---0-2--------2-----2--------2------------0--------------0-------2--------0--------|
A|-----------------------------------0--------0-----0--------0-----------------------|
E|-----------------------------------------------------------------------------------|



then play this during the bridge

e|------------------------------------0-0-----0-0----0-0-----0-0--------------------------------|
B|------3-3-----3-3----3-3-----3-0----1-1-----1-1----1-1-----1-0-0--0-0-----0-0----0-0-----0-0--|
G|------2-2-2---2-2----2-2-2---2-2--------2--------------2-------0--0-0-2---0-0----0-0-2---0-0--|
D|------------4--------------4-----2--------2-----2--------2--------------2-----2--------2------|
A|---5--------------5---------------------------------------------------------------------------|
E|----------------------------------------------------------------------------------------------|

e|----------------------------------------------|
B|------2-2-----2-2----2-2-----2-0--------------|
G|------2-2-----2-2----2-2-----2-0--------------|
D|----------0--------------0--------------------|
A|---0--------0-----0--------0------------------|
E|----------------------------------------------|




Peace and Love.
Tap to rate this tab
 
# A B C D E F G H I J K L M N O P Q R S T U V W X Y Z