Song name
# A B C D E F G H I J K L M N O P Q R S T U V W X Y Z

John Butler Trio - Attitude tab

---------------------------------------------------------------------
		     ATTITUDE John Butler Trio                              
------------------------------------------------------------------
Tabbed by: Michael Quirk
Email: blue_landscaping@hotmail.com

Tuning: Standard.

Just to get the ball rolling, this song is awesome, but I have neither the skill nor
the time to fully tab it, so have a go.

e|---------------------------------------------------------------|
B|--------5-5p3p0 3p0-------------------------------------3-2----|
G|------4---------------2p0---------------2--2--2--2---4---------|
D|-2-2-----------------------2---5---2---------------2-----------|
A|---------------------------------------------------------------|
E|---------------------------------------------------------------|

e|---------------------------------------------------------------|
B|-----------3-2---2-------2-------------------------------------|
G|-2--2----4-----4-----4-----------------------------------------|
D|-------2-----------2---4---------------------------------------|
A|---------------------------------------------------------------|
E|---------------------------------------------------------------|
Tap to rate this tab
# A B C D E F G H I J K L M N O P Q R S T U V W X Y Z