Song name
# A B C D E F G H I J K L M N O P Q R S T U V W X Y Z

John Butler Trio - Message In A Bottle tab

Hey there

I know this ain't the whole song, but ultimate-guitar won't allow you to only
choose verse and chorus ;)
The solo you'll have to write down yourself.

Tuning:
C-G-C-G-C-e

About the tuning it ain't the same as the vidoe
(http://www.youtube.com/watch#!feature=related&v=6zXwaqJgRV8)
but my guitar was in this tune. :)

(p)= palm mute
 s = slide
 r = let ring
 h = hammer on
 p = pull off


          INTRO      (First two measures)
e:----------------------------------------------------------------------------|
C:----------------------------------------------------------------------------|
G:----------------------------------------------------------------------------|
C:----6---8---------------2-4-------------4---4-6-----------------------------|
G:--6---6------4(p)-----2---------4(p)------4--------4(p)----4(p)4(p)-6s7s6-4-|
C:-----------6(p)6(p)--2--------6(p)6(p)-----------6(p)6(p)6(p)6(p)-----------|


                     (Next four measures)
e:---------------------------------------------------------------------------|
C:---------------------------------------------------------------------------|
G:---------------------------------------------------------------------------|
C:----6---8---------------2-4-------------4---4-6----------------------------|
G:--6---6------4(p)-----2---------4(p)------4--------4(p)----6r--------------|
C:-----------6(p)6(p)--2--------6(p)6(p)-----------6(p)6(p)--4r--------------|

e:---------------------------------------------------------------------------|
C:---------------------------------------------------------------------------|
G:---------------------------------------------------------------------------|
C:----6---8---------------2-4-------------4---4-6----------------------------|
G:--6---6------4(p)-----2---------4(p)------4--------4(p)----4h6p4-----------|
C:-----------6(p)6(p)--2--------6(p)6(p)-----------6(p)6(p)--4r--------------|


                     (Last two measures)
e:----------------------------------------------------------------------------|
C:----------------------------------------------------------------------------|
G:----------------------------------------------------------------------------|
C:----6---8---------------2-4-------------4---4-6-----------------------------|
G:--6---6------4(p)-----2---------4(p)------4--------4(p)----4(p)4(p)-6s7s6-4-|
C:-----------6(p)6(p)--2--------6(p)6(p)-----------6(p)6(p)6(p)6(p)-----------|


          Verse *NOTICE* the measures ends en various ways not only like this
e:----------------------------------------------------------------------------|
C:----------------------------------------------------------------------------|
G:----------------------------------------------------------------------------|
C:----6---8---------------2-4-------------4---4-6-----------------------------|
G:--6---6------4(p)-----2---------4(p)------4--------4(p)----4(p)4(p)-6s7s6-4-|
C:-----------6(p)6(p)--2--------6(p)6(p)-----------6(p)6(p)6(p)6(p)-----------|

          Chorus *THESE ARE THE CHORDS*
e:--------|
C:--------|
G:--4--6--|
C:--6--8--|
G:--4--6--|
C:--4--6--|

          SOLO

          Repeat Verse

          Repeat Chorus
Tap to rate this tab
 
# A B C D E F G H I J K L M N O P Q R S T U V W X Y Z